ISO-10303-21;
HEADER;
/* Generated by software containing ST-Developer
 * from STEP Tools, Inc. (www.steptools.com) 
 */

FILE_DESCRIPTION(
/* description */ (''),
/* implementation_level */ '2;1');

FILE_NAME(
/* name */ 'ER32-TA16-80.step',
/* time_stamp */ '2025-12-09T16:41:50-06:00',
/* author */ (''),
/* organization */ (''),
/* preprocessor_version */ 'ST-DEVELOPER v20.1',
/* originating_system */ 'Autodesk Translation Framework v14.21.0.0',
/* authorisation */ '');

FILE_SCHEMA (('AUTOMOTIVE_DESIGN { 1 0 10303 214 3 1 1 }'));
ENDSEC;

DATA;
#10=MECHANICAL_DESIGN_GEOMETRIC_PRESENTATION_REPRESENTATION('',(#151,#152,
#153,#154,#155,#156,#157,#158),#313);
#11=SHAPE_REPRESENTATION_RELATIONSHIP('SRR','None',#323,#12);
#12=ADVANCED_BREP_SHAPE_REPRESENTATION('',(#13),#312);
#13=MANIFOLD_SOLID_BREP('Body1',#171);
#14=FACE_BOUND('',#45,.T.);
#15=FACE_BOUND('',#48,.T.);
#16=FACE_BOUND('',#52,.T.);
#17=PLANE('',#191);
#18=PLANE('',#192);
#19=PLANE('',#198);
#20=PLANE('',#202);
#21=PLANE('',#208);
#22=CYLINDRICAL_SURFACE('',#189,0.31496062992126);
#23=CYLINDRICAL_SURFACE('',#196,0.62992125984252);
#24=CYLINDRICAL_SURFACE('',#200,0.574);
#25=CYLINDRICAL_SURFACE('',#204,0.62992125984252);
#26=FACE_OUTER_BOUND('',#38,.T.);
#27=FACE_OUTER_BOUND('',#39,.T.);
#28=FACE_OUTER_BOUND('',#40,.T.);
#29=FACE_OUTER_BOUND('',#41,.T.);
#30=FACE_OUTER_BOUND('',#42,.T.);
#31=FACE_OUTER_BOUND('',#43,.T.);
#32=FACE_OUTER_BOUND('',#44,.T.);
#33=FACE_OUTER_BOUND('',#46,.T.);
#34=FACE_OUTER_BOUND('',#47,.T.);
#35=FACE_OUTER_BOUND('',#49,.T.);
#36=FACE_OUTER_BOUND('',#50,.T.);
#37=FACE_OUTER_BOUND('',#51,.T.);
#38=EDGE_LOOP('',(#110,#111,#112,#113,#114));
#39=EDGE_LOOP('',(#115,#116,#117,#118,#119));
#40=EDGE_LOOP('',(#120));
#41=EDGE_LOOP('',(#121));
#42=EDGE_LOOP('',(#122,#123,#124,#125));
#43=EDGE_LOOP('',(#126,#127,#128,#129));
#44=EDGE_LOOP('',(#130));
#45=EDGE_LOOP('',(#131));
#46=EDGE_LOOP('',(#132,#133,#134,#135));
#47=EDGE_LOOP('',(#136));
#48=EDGE_LOOP('',(#137));
#49=EDGE_LOOP('',(#138,#139,#140,#141));
#50=EDGE_LOOP('',(#142,#143,#144,#145));
#51=EDGE_LOOP('',(#146));
#52=EDGE_LOOP('',(#147));
#53=LINE('',#271,#60);
#54=LINE('',#277,#61);
#55=LINE('',#286,#62);
#56=LINE('',#290,#63);
#57=LINE('',#297,#64);
#58=LINE('',#304,#65);
#59=LINE('',#308,#66);
#60=VECTOR('',#215,0.30496062992126);
#61=VECTOR('',#222,0.31496062992126);
#62=VECTOR('',#235,0.555856239954359);
#63=VECTOR('',#240,0.62992125984252);
#64=VECTOR('',#249,0.574);
#65=VECTOR('',#258,0.62992125984252);
#66=VECTOR('',#263,0.575072984269505);
#67=CIRCLE('',#186,0.29496062992126);
#68=CIRCLE('',#187,0.31496062992126);
#69=CIRCLE('',#188,0.31496062992126);
#70=CIRCLE('',#190,0.31496062992126);
#71=CIRCLE('',#193,0.481791220066199);
#72=CIRCLE('',#195,0.62992125984252);
#73=CIRCLE('',#197,0.62992125984252);
#74=CIRCLE('',#199,0.574);
#75=CIRCLE('',#201,0.574);
#76=CIRCLE('',#203,0.62992125984252);
#77=CIRCLE('',#205,0.62992125984252);
#78=CIRCLE('',#207,0.52022470869649);
#79=VERTEX_POINT('',#268);
#80=VERTEX_POINT('',#270);
#81=VERTEX_POINT('',#272);
#82=VERTEX_POINT('',#276);
#83=VERTEX_POINT('',#281);
#84=VERTEX_POINT('',#284);
#85=VERTEX_POINT('',#288);
#86=VERTEX_POINT('',#292);
#87=VERTEX_POINT('',#295);
#88=VERTEX_POINT('',#299);
#89=VERTEX_POINT('',#302);
#90=VERTEX_POINT('',#306);
#91=EDGE_CURVE('',#79,#79,#67,.T.);
#92=EDGE_CURVE('',#79,#80,#53,.T.);
#93=EDGE_CURVE('',#80,#81,#68,.T.);
#94=EDGE_CURVE('',#81,#80,#69,.T.);
#95=EDGE_CURVE('',#81,#82,#54,.T.);
#96=EDGE_CURVE('',#82,#82,#70,.T.);
#97=EDGE_CURVE('',#83,#83,#71,.T.);
#98=EDGE_CURVE('',#84,#84,#72,.T.);
#99=EDGE_CURVE('',#84,#83,#55,.T.);
#100=EDGE_CURVE('',#85,#85,#73,.T.);
#101=EDGE_CURVE('',#85,#84,#56,.T.);
#102=EDGE_CURVE('',#86,#86,#74,.T.);
#103=EDGE_CURVE('',#87,#87,#75,.T.);
#104=EDGE_CURVE('',#87,#86,#57,.T.);
#105=EDGE_CURVE('',#88,#88,#76,.T.);
#106=EDGE_CURVE('',#89,#89,#77,.T.);
#107=EDGE_CURVE('',#89,#88,#58,.T.);
#108=EDGE_CURVE('',#90,#90,#78,.T.);
#109=EDGE_CURVE('',#90,#89,#59,.T.);
#110=ORIENTED_EDGE('',*,*,#91,.T.);
#111=ORIENTED_EDGE('',*,*,#92,.T.);
#112=ORIENTED_EDGE('',*,*,#93,.T.);
#113=ORIENTED_EDGE('',*,*,#94,.T.);
#114=ORIENTED_EDGE('',*,*,#92,.F.);
#115=ORIENTED_EDGE('',*,*,#93,.F.);
#116=ORIENTED_EDGE('',*,*,#94,.F.);
#117=ORIENTED_EDGE('',*,*,#95,.T.);
#118=ORIENTED_EDGE('',*,*,#96,.T.);
#119=ORIENTED_EDGE('',*,*,#95,.F.);
#120=ORIENTED_EDGE('',*,*,#91,.F.);
#121=ORIENTED_EDGE('',*,*,#97,.F.);
#122=ORIENTED_EDGE('',*,*,#98,.F.);
#123=ORIENTED_EDGE('',*,*,#99,.T.);
#124=ORIENTED_EDGE('',*,*,#97,.T.);
#125=ORIENTED_EDGE('',*,*,#99,.F.);
#126=ORIENTED_EDGE('',*,*,#100,.F.);
#127=ORIENTED_EDGE('',*,*,#101,.T.);
#128=ORIENTED_EDGE('',*,*,#98,.T.);
#129=ORIENTED_EDGE('',*,*,#101,.F.);
#130=ORIENTED_EDGE('',*,*,#100,.T.);
#131=ORIENTED_EDGE('',*,*,#102,.F.);
#132=ORIENTED_EDGE('',*,*,#103,.F.);
#133=ORIENTED_EDGE('',*,*,#104,.T.);
#134=ORIENTED_EDGE('',*,*,#102,.T.);
#135=ORIENTED_EDGE('',*,*,#104,.F.);
#136=ORIENTED_EDGE('',*,*,#105,.F.);
#137=ORIENTED_EDGE('',*,*,#103,.T.);
#138=ORIENTED_EDGE('',*,*,#106,.F.);
#139=ORIENTED_EDGE('',*,*,#107,.T.);
#140=ORIENTED_EDGE('',*,*,#105,.T.);
#141=ORIENTED_EDGE('',*,*,#107,.F.);
#142=ORIENTED_EDGE('',*,*,#108,.F.);
#143=ORIENTED_EDGE('',*,*,#109,.T.);
#144=ORIENTED_EDGE('',*,*,#106,.T.);
#145=ORIENTED_EDGE('',*,*,#109,.F.);
#146=ORIENTED_EDGE('',*,*,#108,.T.);
#147=ORIENTED_EDGE('',*,*,#96,.F.);
#148=CONICAL_SURFACE('',#185,0.30496062992126,0.785398163397451);
#149=CONICAL_SURFACE('',#194,0.555856239954359,0.139626340159546);
#150=CONICAL_SURFACE('',#206,0.575072984269505,0.5235987755983);
#151=STYLED_ITEM('',(#334),#159);
#152=STYLED_ITEM('',(#334),#161);
#153=STYLED_ITEM('',(#334),#162);
#154=STYLED_ITEM('',(#334),#165);
#155=STYLED_ITEM('',(#334),#166);
#156=STYLED_ITEM('',(#334),#167);
#157=STYLED_ITEM('',(#334),#170);
#158=STYLED_ITEM('',(#333),#13);
#159=ADVANCED_FACE('',(#26),#148,.T.);
#160=ADVANCED_FACE('',(#27),#22,.T.);
#161=ADVANCED_FACE('',(#28),#17,.T.);
#162=ADVANCED_FACE('',(#29),#18,.T.);
#163=ADVANCED_FACE('',(#30),#149,.T.);
#164=ADVANCED_FACE('',(#31),#23,.T.);
#165=ADVANCED_FACE('',(#32,#14),#19,.T.);
#166=ADVANCED_FACE('',(#33),#24,.T.);
#167=ADVANCED_FACE('',(#34,#15),#20,.T.);
#168=ADVANCED_FACE('',(#35),#25,.T.);
#169=ADVANCED_FACE('',(#36),#150,.T.);
#170=ADVANCED_FACE('',(#37,#16),#21,.T.);
#171=CLOSED_SHELL('',(#159,#160,#161,#162,#163,#164,#165,#166,#167,#168,
#169,#170));
#172=DERIVED_UNIT_ELEMENT(#174,1.);
#173=DERIVED_UNIT_ELEMENT(#317,-3.);
#174=(
MASS_UNIT()
NAMED_UNIT(*)
SI_UNIT(.KILO.,.GRAM.)
);
#175=DERIVED_UNIT((#172,#173));
#176=MEASURE_REPRESENTATION_ITEM('density measure',
POSITIVE_RATIO_MEASURE(7850.),#175);
#177=PROPERTY_DEFINITION_REPRESENTATION(#182,#179);
#178=PROPERTY_DEFINITION_REPRESENTATION(#183,#180);
#179=REPRESENTATION('material name',(#181),#312);
#180=REPRESENTATION('density',(#176),#312);
#181=DESCRIPTIVE_REPRESENTATION_ITEM('Steel','Steel');
#182=PROPERTY_DEFINITION('material property','material name',#325);
#183=PROPERTY_DEFINITION('material property','density of part',#325);
#184=AXIS2_PLACEMENT_3D('',#266,#209,#210);
#185=AXIS2_PLACEMENT_3D('',#267,#211,#212);
#186=AXIS2_PLACEMENT_3D('',#269,#213,#214);
#187=AXIS2_PLACEMENT_3D('',#273,#216,#217);
#188=AXIS2_PLACEMENT_3D('',#274,#218,#219);
#189=AXIS2_PLACEMENT_3D('',#275,#220,#221);
#190=AXIS2_PLACEMENT_3D('',#278,#223,#224);
#191=AXIS2_PLACEMENT_3D('',#279,#225,#226);
#192=AXIS2_PLACEMENT_3D('',#280,#227,#228);
#193=AXIS2_PLACEMENT_3D('',#282,#229,#230);
#194=AXIS2_PLACEMENT_3D('',#283,#231,#232);
#195=AXIS2_PLACEMENT_3D('',#285,#233,#234);
#196=AXIS2_PLACEMENT_3D('',#287,#236,#237);
#197=AXIS2_PLACEMENT_3D('',#289,#238,#239);
#198=AXIS2_PLACEMENT_3D('',#291,#241,#242);
#199=AXIS2_PLACEMENT_3D('',#293,#243,#244);
#200=AXIS2_PLACEMENT_3D('',#294,#245,#246);
#201=AXIS2_PLACEMENT_3D('',#296,#247,#248);
#202=AXIS2_PLACEMENT_3D('',#298,#250,#251);
#203=AXIS2_PLACEMENT_3D('',#300,#252,#253);
#204=AXIS2_PLACEMENT_3D('',#301,#254,#255);
#205=AXIS2_PLACEMENT_3D('',#303,#256,#257);
#206=AXIS2_PLACEMENT_3D('',#305,#259,#260);
#207=AXIS2_PLACEMENT_3D('',#307,#261,#262);
#208=AXIS2_PLACEMENT_3D('',#309,#264,#265);
#209=DIRECTION('axis',(0.,0.,1.));
#210=DIRECTION('refdir',(1.,0.,0.));
#211=DIRECTION('center_axis',(0.,0.,1.));
#212=DIRECTION('ref_axis',(0.,-1.,0.));
#213=DIRECTION('center_axis',(0.,0.,1.));
#214=DIRECTION('ref_axis',(0.,-1.,0.));
#215=DIRECTION('',(8.65956056235495E-17,0.707106781186549,0.707106781186546));
#216=DIRECTION('center_axis',(0.,0.,-1.));
#217=DIRECTION('ref_axis',(0.,-1.,0.));
#218=DIRECTION('center_axis',(0.,0.,-1.));
#219=DIRECTION('ref_axis',(0.,-1.,0.));
#220=DIRECTION('center_axis',(0.,0.,-1.));
#221=DIRECTION('ref_axis',(0.,1.,0.));
#222=DIRECTION('',(0.,0.,1.));
#223=DIRECTION('center_axis',(0.,0.,-1.));
#224=DIRECTION('ref_axis',(1.,0.,0.));
#225=DIRECTION('center_axis',(0.,0.,-1.));
#226=DIRECTION('ref_axis',(-1.,0.,0.));
#227=DIRECTION('center_axis',(0.,0.,1.));
#228=DIRECTION('ref_axis',(1.,0.,0.));
#229=DIRECTION('center_axis',(0.,0.,-1.));
#230=DIRECTION('ref_axis',(1.,0.,0.));
#231=DIRECTION('center_axis',(0.,0.,-1.));
#232=DIRECTION('ref_axis',(0.,1.,0.));
#233=DIRECTION('center_axis',(0.,0.,-1.));
#234=DIRECTION('ref_axis',(1.,0.,0.));
#235=DIRECTION('',(1.70437892618156E-17,0.139173100960066,0.99026806874157));
#236=DIRECTION('center_axis',(0.,0.,-1.));
#237=DIRECTION('ref_axis',(0.,1.,0.));
#238=DIRECTION('center_axis',(0.,0.,-1.));
#239=DIRECTION('ref_axis',(1.,0.,0.));
#240=DIRECTION('',(0.,0.,1.));
#241=DIRECTION('center_axis',(0.,0.,-1.));
#242=DIRECTION('ref_axis',(-1.,0.,0.));
#243=DIRECTION('center_axis',(0.,0.,-1.));
#244=DIRECTION('ref_axis',(1.,0.,0.));
#245=DIRECTION('center_axis',(0.,0.,-1.));
#246=DIRECTION('ref_axis',(0.,1.,0.));
#247=DIRECTION('center_axis',(0.,0.,-1.));
#248=DIRECTION('ref_axis',(1.,0.,0.));
#249=DIRECTION('',(0.,0.,1.));
#250=DIRECTION('center_axis',(0.,0.,1.));
#251=DIRECTION('ref_axis',(1.,0.,0.));
#252=DIRECTION('center_axis',(0.,0.,-1.));
#253=DIRECTION('ref_axis',(1.,0.,0.));
#254=DIRECTION('center_axis',(0.,0.,-1.));
#255=DIRECTION('ref_axis',(0.,1.,0.));
#256=DIRECTION('center_axis',(0.,0.,-1.));
#257=DIRECTION('ref_axis',(1.,0.,0.));
#258=DIRECTION('',(0.,0.,1.));
#259=DIRECTION('center_axis',(0.,0.,1.));
#260=DIRECTION('ref_axis',(0.,1.,0.));
#261=DIRECTION('center_axis',(0.,0.,-1.));
#262=DIRECTION('ref_axis',(1.,0.,0.));
#263=DIRECTION('',(-6.12323399573678E-17,-0.500000000000001,0.866025403784438));
#264=DIRECTION('center_axis',(0.,0.,-1.));
#265=DIRECTION('ref_axis',(-1.,0.,0.));
#266=CARTESIAN_POINT('',(0.,0.,0.));
#267=CARTESIAN_POINT('Origin',(0.,0.,-3.1396062992126));
#268=CARTESIAN_POINT('',(-3.61222591307558E-17,0.29496062992126,-3.1496062992126));
#269=CARTESIAN_POINT('Origin',(0.,0.,-3.1496062992126));
#270=CARTESIAN_POINT('',(3.85715527290505E-17,0.31496062992126,-3.1296062992126));
#271=CARTESIAN_POINT('',(3.73469059299031E-17,0.30496062992126,-3.1396062992126));
#272=CARTESIAN_POINT('',(-3.85715527290505E-17,-0.31496062992126,-3.1296062992126));
#273=CARTESIAN_POINT('Origin',(0.,0.,-3.1296062992126));
#274=CARTESIAN_POINT('Origin',(0.,0.,-3.1296062992126));
#275=CARTESIAN_POINT('Origin',(0.,0.,-1.5748031496063));
#276=CARTESIAN_POINT('',(-3.85715527290505E-17,-0.31496062992126,0.));
#277=CARTESIAN_POINT('',(-3.85715527290505E-17,-0.31496062992126,-1.5748031496063));
#278=CARTESIAN_POINT('Origin',(0.,0.,0.));
#279=CARTESIAN_POINT('Origin',(0.,0.,-3.1496062992126));
#280=CARTESIAN_POINT('Origin',(0.,0.481791220066199,1.574));
#281=CARTESIAN_POINT('',(-5.90024075511369E-17,-0.481791220066199,1.574));
#282=CARTESIAN_POINT('Origin',(0.,0.,1.574));
#283=CARTESIAN_POINT('Origin',(0.,0.,1.047));
#284=CARTESIAN_POINT('',(-7.7143105458101E-17,-0.62992125984252,0.52));
#285=CARTESIAN_POINT('Origin',(0.,0.,0.52));
#286=CARTESIAN_POINT('',(-6.80727565046189E-17,-0.555856239954359,1.047));
#287=CARTESIAN_POINT('Origin',(0.,0.,0.4385));
#288=CARTESIAN_POINT('',(-7.7143105458101E-17,-0.62992125984252,0.357));
#289=CARTESIAN_POINT('Origin',(0.,0.,0.357));
#290=CARTESIAN_POINT('',(-7.7143105458101E-17,-0.62992125984252,0.4385));
#291=CARTESIAN_POINT('Origin',(0.,0.574,0.357));
#292=CARTESIAN_POINT('',(-7.02947262710581E-17,-0.574,0.357));
#293=CARTESIAN_POINT('Origin',(0.,0.,0.357));
#294=CARTESIAN_POINT('Origin',(0.,0.,0.285));
#295=CARTESIAN_POINT('',(-7.02947262710581E-17,-0.574,0.213));
#296=CARTESIAN_POINT('Origin',(0.,0.,0.213));
#297=CARTESIAN_POINT('',(-7.02947262710581E-17,-0.574,0.285));
#298=CARTESIAN_POINT('Origin',(0.,0.62992125984252,0.213));
#299=CARTESIAN_POINT('',(-7.7143105458101E-17,-0.62992125984252,0.213));
#300=CARTESIAN_POINT('Origin',(0.,0.,0.213));
#301=CARTESIAN_POINT('Origin',(0.,0.,0.2015));
#302=CARTESIAN_POINT('',(-7.7143105458101E-17,-0.62992125984252,0.19));
#303=CARTESIAN_POINT('Origin',(0.,0.,0.19));
#304=CARTESIAN_POINT('',(-7.7143105458101E-17,-0.62992125984252,0.2015));
#305=CARTESIAN_POINT('Origin',(0.,0.,0.0950000000000003));
#306=CARTESIAN_POINT('',(-6.37091524342521E-17,-0.52022470869649,6.55643518479423E-17));
#307=CARTESIAN_POINT('Origin',(0.,0.,0.));
#308=CARTESIAN_POINT('',(-7.04261289461765E-17,-0.575072984269505,0.0950000000000003));
#309=CARTESIAN_POINT('Origin',(0.,0.31496062992126,0.));
#310=UNCERTAINTY_MEASURE_WITH_UNIT(LENGTH_MEASURE(0.000393700787401575),
#315,'DISTANCE_ACCURACY_VALUE',
'Maximum model space distance between geometric entities at asserted c
onnectivities');
#311=UNCERTAINTY_MEASURE_WITH_UNIT(LENGTH_MEASURE(0.000393700787401575),
#315,'DISTANCE_ACCURACY_VALUE',
'Maximum model space distance between geometric entities at asserted c
onnectivities');
#312=(
GEOMETRIC_REPRESENTATION_CONTEXT(3)
GLOBAL_UNCERTAINTY_ASSIGNED_CONTEXT((#310))
GLOBAL_UNIT_ASSIGNED_CONTEXT((#315,#319,#320))
REPRESENTATION_CONTEXT('','3D')
);
#313=(
GEOMETRIC_REPRESENTATION_CONTEXT(3)
GLOBAL_UNCERTAINTY_ASSIGNED_CONTEXT((#311))
GLOBAL_UNIT_ASSIGNED_CONTEXT((#315,#319,#320))
REPRESENTATION_CONTEXT('','3D')
);
#314=DIMENSIONAL_EXPONENTS(1.,0.,0.,0.,0.,0.,0.);
#315=(
CONVERSION_BASED_UNIT('inch',#318)
LENGTH_UNIT()
NAMED_UNIT(#314)
);
#316=(
LENGTH_UNIT()
NAMED_UNIT(*)
SI_UNIT(.MILLI.,.METRE.)
);
#317=(
LENGTH_UNIT()
NAMED_UNIT(*)
SI_UNIT($,.METRE.)
);
#318=LENGTH_MEASURE_WITH_UNIT(LENGTH_MEASURE(25.4),#316);
#319=(
NAMED_UNIT(*)
PLANE_ANGLE_UNIT()
SI_UNIT($,.RADIAN.)
);
#320=(
NAMED_UNIT(*)
SI_UNIT($,.STERADIAN.)
SOLID_ANGLE_UNIT()
);
#321=SHAPE_DEFINITION_REPRESENTATION(#322,#323);
#322=PRODUCT_DEFINITION_SHAPE('',$,#325);
#323=SHAPE_REPRESENTATION('',(#184),#312);
#324=PRODUCT_DEFINITION_CONTEXT('part definition',#329,'design');
#325=PRODUCT_DEFINITION('ER32-TA16-80','ER32-TA16-80 v1',#326,#324);
#326=PRODUCT_DEFINITION_FORMATION('',$,#331);
#327=PRODUCT_RELATED_PRODUCT_CATEGORY('ER32-TA16-80 v1',
'ER32-TA16-80 v1',(#331));
#328=APPLICATION_PROTOCOL_DEFINITION('international standard',
'automotive_design',2009,#329);
#329=APPLICATION_CONTEXT(
'Core Data for Automotive Mechanical Design Process');
#330=PRODUCT_CONTEXT('part definition',#329,'mechanical');
#331=PRODUCT('ER32-TA16-80','ER32-TA16-80 v1',$,(#330));
#332=PRESENTATION_STYLE_ASSIGNMENT((#335));
#333=PRESENTATION_STYLE_ASSIGNMENT((#336));
#334=PRESENTATION_STYLE_ASSIGNMENT((#337));
#335=SURFACE_STYLE_USAGE(.BOTH.,#338);
#336=SURFACE_STYLE_USAGE(.BOTH.,#339);
#337=SURFACE_STYLE_USAGE(.BOTH.,#340);
#338=SURFACE_SIDE_STYLE('',(#341));
#339=SURFACE_SIDE_STYLE('',(#342));
#340=SURFACE_SIDE_STYLE('',(#343));
#341=SURFACE_STYLE_FILL_AREA(#344);
#342=SURFACE_STYLE_FILL_AREA(#345);
#343=SURFACE_STYLE_FILL_AREA(#346);
#344=FILL_AREA_STYLE('Steel - Satin',(#347));
#345=FILL_AREA_STYLE('Opaque(255,255,255)',(#348));
#346=FILL_AREA_STYLE('Opaque(44,44,44)',(#349));
#347=FILL_AREA_STYLE_COLOUR('Steel - Satin',#350);
#348=FILL_AREA_STYLE_COLOUR('Opaque(255,255,255)',#351);
#349=FILL_AREA_STYLE_COLOUR('Opaque(44,44,44)',#352);
#350=COLOUR_RGB('Steel - Satin',0.627450980392157,0.627450980392157,0.627450980392157);
#351=COLOUR_RGB('Opaque(255,255,255)',1.,1.,1.);
#352=COLOUR_RGB('Opaque(44,44,44)',0.172549019607843,0.172549019607843,
0.172549019607843);
ENDSEC;
END-ISO-10303-21;
