ISO-10303-21;
HEADER;
/* Generated by software containing ST-Developer
 * from STEP Tools, Inc. (www.steptools.com) 
 */

FILE_DESCRIPTION(
/* description */ (''),
/* implementation_level */ '2;1');

FILE_NAME(
/* name */ '1310-.372-1-BR.step',
/* time_stamp */ '2025-11-21T12:00:08-06:00',
/* author */ (''),
/* organization */ (''),
/* preprocessor_version */ 'ST-DEVELOPER v20.1',
/* originating_system */ 'Autodesk Translation Framework v14.21.0.0',
/* authorisation */ '');

FILE_SCHEMA (('AUTOMOTIVE_DESIGN { 1 0 10303 214 3 1 1 }'));
ENDSEC;

DATA;
#10=MECHANICAL_DESIGN_GEOMETRIC_PRESENTATION_REPRESENTATION('',(#13),#282);
#11=SHAPE_REPRESENTATION_RELATIONSHIP('SRR','None',#292,#12);
#12=ADVANCED_BREP_SHAPE_REPRESENTATION('',(#14),#281);
#13=STYLED_ITEM('',(#301),#14);
#14=MANIFOLD_SOLID_BREP('Body1',#149);
#15=TOROIDAL_SURFACE('',#172,0.198818897637795,0.0787401574803152);
#16=CYLINDRICAL_SURFACE('',#167,0.1875);
#17=CYLINDRICAL_SURFACE('',#176,0.12007874015748);
#18=CYLINDRICAL_SURFACE('',#180,0.186003937007874);
#19=LINE('',#245,#26);
#20=LINE('',#249,#27);
#21=LINE('',#254,#28);
#22=LINE('',#265,#29);
#23=LINE('',#269,#30);
#24=LINE('',#273,#31);
#25=LINE('',#277,#32);
#26=VECTOR('',#195,0.167814960629921);
#27=VECTOR('',#200,0.1875);
#28=VECTOR('',#205,0.159063960480928);
#29=VECTOR('',#220,0.12007874015748);
#30=VECTOR('',#225,0.153041338582677);
#31=VECTOR('',#230,0.186003937007874);
#32=VECTOR('',#235,0.153041338582677);
#33=CONICAL_SURFACE('',#165,0.167814960629921,0.785398163397449);
#34=CONICAL_SURFACE('',#169,0.159063960480928,0.523598775598298);
#35=CONICAL_SURFACE('',#178,0.153041338582677,1.04719755119656);
#36=CONICAL_SURFACE('',#182,0.153041338582677,1.0471975511966);
#37=FACE_OUTER_BOUND('',#47,.T.);
#38=FACE_OUTER_BOUND('',#48,.T.);
#39=FACE_OUTER_BOUND('',#49,.T.);
#40=FACE_OUTER_BOUND('',#50,.T.);
#41=FACE_OUTER_BOUND('',#51,.T.);
#42=FACE_OUTER_BOUND('',#52,.T.);
#43=FACE_OUTER_BOUND('',#53,.T.);
#44=FACE_OUTER_BOUND('',#54,.T.);
#45=FACE_OUTER_BOUND('',#55,.T.);
#46=FACE_OUTER_BOUND('',#56,.T.);
#47=EDGE_LOOP('',(#99));
#48=EDGE_LOOP('',(#100,#101,#102,#103));
#49=EDGE_LOOP('',(#104,#105,#106,#107));
#50=EDGE_LOOP('',(#108,#109,#110,#111,#112));
#51=EDGE_LOOP('',(#113,#114,#115,#116,#117,#118));
#52=EDGE_LOOP('',(#119,#120,#121,#122,#123));
#53=EDGE_LOOP('',(#124,#125,#126,#127));
#54=EDGE_LOOP('',(#128,#129,#130,#131));
#55=EDGE_LOOP('',(#132,#133,#134,#135));
#56=EDGE_LOOP('',(#136));
#57=CIRCLE('',#164,0.148129921259843);
#58=CIRCLE('',#166,0.1875);
#59=CIRCLE('',#168,0.1875);
#60=CIRCLE('',#170,0.130627920961855);
#61=CIRCLE('',#171,0.130627920961855);
#62=CIRCLE('',#173,0.0787401574803152);
#63=CIRCLE('',#174,0.12007874015748);
#64=CIRCLE('',#175,0.12007874015748);
#65=CIRCLE('',#177,0.12007874015748);
#66=CIRCLE('',#179,0.186003937007874);
#67=CIRCLE('',#181,0.186003937007874);
#68=CIRCLE('',#183,0.12007874015748);
#69=VERTEX_POINT('',#240);
#70=VERTEX_POINT('',#243);
#71=VERTEX_POINT('',#247);
#72=VERTEX_POINT('',#251);
#73=VERTEX_POINT('',#252);
#74=VERTEX_POINT('',#257);
#75=VERTEX_POINT('',#259);
#76=VERTEX_POINT('',#263);
#77=VERTEX_POINT('',#267);
#78=VERTEX_POINT('',#271);
#79=VERTEX_POINT('',#275);
#80=EDGE_CURVE('',#69,#69,#57,.T.);
#81=EDGE_CURVE('',#70,#70,#58,.T.);
#82=EDGE_CURVE('',#70,#69,#19,.T.);
#83=EDGE_CURVE('',#71,#71,#59,.T.);
#84=EDGE_CURVE('',#71,#70,#20,.T.);
#85=EDGE_CURVE('',#72,#73,#60,.T.);
#86=EDGE_CURVE('',#72,#71,#21,.T.);
#87=EDGE_CURVE('',#73,#72,#61,.T.);
#88=EDGE_CURVE('',#73,#74,#62,.T.);
#89=EDGE_CURVE('',#75,#74,#63,.T.);
#90=EDGE_CURVE('',#74,#75,#64,.T.);
#91=EDGE_CURVE('',#76,#76,#65,.T.);
#92=EDGE_CURVE('',#76,#75,#22,.T.);
#93=EDGE_CURVE('',#77,#77,#66,.T.);
#94=EDGE_CURVE('',#77,#76,#23,.T.);
#95=EDGE_CURVE('',#78,#78,#67,.T.);
#96=EDGE_CURVE('',#78,#77,#24,.T.);
#97=EDGE_CURVE('',#79,#79,#68,.T.);
#98=EDGE_CURVE('',#79,#78,#25,.T.);
#99=ORIENTED_EDGE('',*,*,#80,.F.);
#100=ORIENTED_EDGE('',*,*,#81,.F.);
#101=ORIENTED_EDGE('',*,*,#82,.T.);
#102=ORIENTED_EDGE('',*,*,#80,.T.);
#103=ORIENTED_EDGE('',*,*,#82,.F.);
#104=ORIENTED_EDGE('',*,*,#83,.F.);
#105=ORIENTED_EDGE('',*,*,#84,.T.);
#106=ORIENTED_EDGE('',*,*,#81,.T.);
#107=ORIENTED_EDGE('',*,*,#84,.F.);
#108=ORIENTED_EDGE('',*,*,#85,.F.);
#109=ORIENTED_EDGE('',*,*,#86,.T.);
#110=ORIENTED_EDGE('',*,*,#83,.T.);
#111=ORIENTED_EDGE('',*,*,#86,.F.);
#112=ORIENTED_EDGE('',*,*,#87,.F.);
#113=ORIENTED_EDGE('',*,*,#85,.T.);
#114=ORIENTED_EDGE('',*,*,#88,.T.);
#115=ORIENTED_EDGE('',*,*,#89,.F.);
#116=ORIENTED_EDGE('',*,*,#90,.F.);
#117=ORIENTED_EDGE('',*,*,#88,.F.);
#118=ORIENTED_EDGE('',*,*,#87,.T.);
#119=ORIENTED_EDGE('',*,*,#91,.F.);
#120=ORIENTED_EDGE('',*,*,#92,.T.);
#121=ORIENTED_EDGE('',*,*,#89,.T.);
#122=ORIENTED_EDGE('',*,*,#90,.T.);
#123=ORIENTED_EDGE('',*,*,#92,.F.);
#124=ORIENTED_EDGE('',*,*,#93,.F.);
#125=ORIENTED_EDGE('',*,*,#94,.T.);
#126=ORIENTED_EDGE('',*,*,#91,.T.);
#127=ORIENTED_EDGE('',*,*,#94,.F.);
#128=ORIENTED_EDGE('',*,*,#95,.F.);
#129=ORIENTED_EDGE('',*,*,#96,.T.);
#130=ORIENTED_EDGE('',*,*,#93,.T.);
#131=ORIENTED_EDGE('',*,*,#96,.F.);
#132=ORIENTED_EDGE('',*,*,#97,.F.);
#133=ORIENTED_EDGE('',*,*,#98,.T.);
#134=ORIENTED_EDGE('',*,*,#95,.T.);
#135=ORIENTED_EDGE('',*,*,#98,.F.);
#136=ORIENTED_EDGE('',*,*,#97,.T.);
#137=PLANE('',#163);
#138=PLANE('',#184);
#139=ADVANCED_FACE('',(#37),#137,.T.);
#140=ADVANCED_FACE('',(#38),#33,.T.);
#141=ADVANCED_FACE('',(#39),#16,.T.);
#142=ADVANCED_FACE('',(#40),#34,.T.);
#143=ADVANCED_FACE('',(#41),#15,.F.);
#144=ADVANCED_FACE('',(#42),#17,.T.);
#145=ADVANCED_FACE('',(#43),#35,.T.);
#146=ADVANCED_FACE('',(#44),#18,.T.);
#147=ADVANCED_FACE('',(#45),#36,.T.);
#148=ADVANCED_FACE('',(#46),#138,.T.);
#149=CLOSED_SHELL('',(#139,#140,#141,#142,#143,#144,#145,#146,#147,#148));
#150=DERIVED_UNIT_ELEMENT(#152,1.);
#151=DERIVED_UNIT_ELEMENT(#286,-3.);
#152=(
MASS_UNIT()
NAMED_UNIT(*)
SI_UNIT(.KILO.,.GRAM.)
);
#153=DERIVED_UNIT((#150,#151));
#154=MEASURE_REPRESENTATION_ITEM('density measure',
POSITIVE_RATIO_MEASURE(7850.),#153);
#155=PROPERTY_DEFINITION_REPRESENTATION(#160,#157);
#156=PROPERTY_DEFINITION_REPRESENTATION(#161,#158);
#157=REPRESENTATION('material name',(#159),#281);
#158=REPRESENTATION('density',(#154),#281);
#159=DESCRIPTIVE_REPRESENTATION_ITEM('Steel','Steel');
#160=PROPERTY_DEFINITION('material property','material name',#294);
#161=PROPERTY_DEFINITION('material property','density of part',#294);
#162=AXIS2_PLACEMENT_3D('',#238,#185,#186);
#163=AXIS2_PLACEMENT_3D('',#239,#187,#188);
#164=AXIS2_PLACEMENT_3D('',#241,#189,#190);
#165=AXIS2_PLACEMENT_3D('',#242,#191,#192);
#166=AXIS2_PLACEMENT_3D('',#244,#193,#194);
#167=AXIS2_PLACEMENT_3D('',#246,#196,#197);
#168=AXIS2_PLACEMENT_3D('',#248,#198,#199);
#169=AXIS2_PLACEMENT_3D('',#250,#201,#202);
#170=AXIS2_PLACEMENT_3D('',#253,#203,#204);
#171=AXIS2_PLACEMENT_3D('',#255,#206,#207);
#172=AXIS2_PLACEMENT_3D('',#256,#208,#209);
#173=AXIS2_PLACEMENT_3D('',#258,#210,#211);
#174=AXIS2_PLACEMENT_3D('',#260,#212,#213);
#175=AXIS2_PLACEMENT_3D('',#261,#214,#215);
#176=AXIS2_PLACEMENT_3D('',#262,#216,#217);
#177=AXIS2_PLACEMENT_3D('',#264,#218,#219);
#178=AXIS2_PLACEMENT_3D('',#266,#221,#222);
#179=AXIS2_PLACEMENT_3D('',#268,#223,#224);
#180=AXIS2_PLACEMENT_3D('',#270,#226,#227);
#181=AXIS2_PLACEMENT_3D('',#272,#228,#229);
#182=AXIS2_PLACEMENT_3D('',#274,#231,#232);
#183=AXIS2_PLACEMENT_3D('',#276,#233,#234);
#184=AXIS2_PLACEMENT_3D('',#278,#236,#237);
#185=DIRECTION('axis',(0.,0.,1.));
#186=DIRECTION('refdir',(1.,0.,0.));
#187=DIRECTION('center_axis',(-1.,0.,0.));
#188=DIRECTION('ref_axis',(0.,0.,1.));
#189=DIRECTION('center_axis',(1.,0.,0.));
#190=DIRECTION('ref_axis',(0.,0.,-1.));
#191=DIRECTION('center_axis',(1.,0.,0.));
#192=DIRECTION('ref_axis',(0.,1.,0.));
#193=DIRECTION('center_axis',(1.,0.,0.));
#194=DIRECTION('ref_axis',(0.,0.,-1.));
#195=DIRECTION('',(-0.707106781186547,0.707106781186548,8.65956056235493E-17));
#196=DIRECTION('center_axis',(1.,0.,0.));
#197=DIRECTION('ref_axis',(0.,1.,0.));
#198=DIRECTION('center_axis',(1.,0.,0.));
#199=DIRECTION('ref_axis',(0.,0.,-1.));
#200=DIRECTION('',(-1.,0.,0.));
#201=DIRECTION('center_axis',(-1.,0.,0.));
#202=DIRECTION('ref_axis',(0.,1.,0.));
#203=DIRECTION('center_axis',(1.,0.,0.));
#204=DIRECTION('ref_axis',(0.,0.,-1.));
#205=DIRECTION('',(-0.866025403784439,-0.499999999999999,-6.12323399573675E-17));
#206=DIRECTION('center_axis',(1.,0.,0.));
#207=DIRECTION('ref_axis',(0.,0.,-1.));
#208=DIRECTION('center_axis',(1.,0.,0.));
#209=DIRECTION('ref_axis',(0.,0.,-1.));
#210=DIRECTION('center_axis',(0.,-1.,-1.22464679914735E-16));
#211=DIRECTION('ref_axis',(0.,-1.22464679914735E-16,1.));
#212=DIRECTION('center_axis',(1.,0.,0.));
#213=DIRECTION('ref_axis',(0.,0.,-1.));
#214=DIRECTION('center_axis',(1.,0.,0.));
#215=DIRECTION('ref_axis',(0.,0.,-1.));
#216=DIRECTION('center_axis',(1.,0.,0.));
#217=DIRECTION('ref_axis',(0.,1.,0.));
#218=DIRECTION('center_axis',(1.,0.,0.));
#219=DIRECTION('ref_axis',(0.,0.,-1.));
#220=DIRECTION('',(-1.,0.,0.));
#221=DIRECTION('center_axis',(1.,0.,0.));
#222=DIRECTION('ref_axis',(0.,1.,0.));
#223=DIRECTION('center_axis',(1.,0.,0.));
#224=DIRECTION('ref_axis',(0.,0.,-1.));
#225=DIRECTION('',(-0.500000000000036,0.866025403784418,1.06057523872488E-16));
#226=DIRECTION('center_axis',(1.,0.,0.));
#227=DIRECTION('ref_axis',(0.,1.,0.));
#228=DIRECTION('center_axis',(1.,0.,0.));
#229=DIRECTION('ref_axis',(0.,0.,-1.));
#230=DIRECTION('',(-1.,0.,0.));
#231=DIRECTION('center_axis',(-1.,0.,0.));
#232=DIRECTION('ref_axis',(0.,1.,0.));
#233=DIRECTION('center_axis',(1.,0.,0.));
#234=DIRECTION('ref_axis',(0.,0.,-1.));
#235=DIRECTION('',(-0.499999999999998,-0.86602540378444,-1.06057523872491E-16));
#236=DIRECTION('center_axis',(1.,0.,0.));
#237=DIRECTION('ref_axis',(0.,0.,-1.));
#238=CARTESIAN_POINT('',(0.,0.,0.));
#239=CARTESIAN_POINT('Origin',(0.,0.148129921259843,0.));
#240=CARTESIAN_POINT('',(-4.91732638859567E-17,-0.148129921259843,-1.81406833928816E-17));
#241=CARTESIAN_POINT('Origin',(0.,0.,0.));
#242=CARTESIAN_POINT('Origin',(0.0196850393700787,0.,0.));
#243=CARTESIAN_POINT('',(0.0393700787401574,-0.1875,-2.29621274840129E-17));
#244=CARTESIAN_POINT('Origin',(0.0393700787401573,0.,0.));
#245=CARTESIAN_POINT('',(0.0196850393700787,-0.167814960629921,-2.05514054384472E-17));
#246=CARTESIAN_POINT('Origin',(0.897944934987816,0.,0.));
#247=CARTESIAN_POINT('',(1.75651979123548,-0.1875,-2.29621274840129E-17));
#248=CARTESIAN_POINT('Origin',(1.75651979123548,0.,0.));
#249=CARTESIAN_POINT('',(0.897944934987816,-0.1875,-2.29621274840129E-17));
#250=CARTESIAN_POINT('Origin',(1.80577245644855,0.,0.));
#251=CARTESIAN_POINT('',(1.85502512166162,-0.130627920961855,-1.59973065285209E-17));
#252=CARTESIAN_POINT('',(1.85502512166162,-1.59973065285209E-17,0.130627920961855));
#253=CARTESIAN_POINT('Origin',(1.85502512166162,0.,0.));
#254=CARTESIAN_POINT('',(1.80577245644855,-0.159063960480928,-1.94797170062669E-17));
#255=CARTESIAN_POINT('Origin',(1.85502512166162,0.,0.));
#256=CARTESIAN_POINT('Origin',(1.89439520040177,0.,0.));
#257=CARTESIAN_POINT('',(1.89439520040177,-1.47054044779505E-17,0.12007874015748));
#258=CARTESIAN_POINT('Origin',(1.89439520040177,-2.43482926602131E-17,0.198818897637795));
#259=CARTESIAN_POINT('',(1.89439520040177,-0.12007874015748,-1.47054044779505E-17));
#260=CARTESIAN_POINT('Origin',(1.89439520040177,0.,0.));
#261=CARTESIAN_POINT('Origin',(1.89439520040177,0.,0.));
#262=CARTESIAN_POINT('Origin',(2.40795456769073,0.,0.));
#263=CARTESIAN_POINT('',(2.92151393497968,-0.12007874015748,-1.47054044779505E-17));
#264=CARTESIAN_POINT('Origin',(2.92151393497968,0.,0.));
#265=CARTESIAN_POINT('',(2.40795456769073,-0.12007874015748,-1.47054044779505E-17));
#266=CARTESIAN_POINT('Origin',(2.94054490005366,0.,0.));
#267=CARTESIAN_POINT('',(2.95957586512764,-0.186003937007874,-2.27789126085499E-17));
#268=CARTESIAN_POINT('Origin',(2.95957586512764,0.,0.));
#269=CARTESIAN_POINT('',(2.94054490005366,-0.153041338582677,-1.87421585432502E-17));
#270=CARTESIAN_POINT('Origin',(2.96075696748984,0.,0.));
#271=CARTESIAN_POINT('',(2.96193806985205,-0.186003937007874,-2.27789126085499E-17));
#272=CARTESIAN_POINT('Origin',(2.96193806985205,0.,0.));
#273=CARTESIAN_POINT('',(2.96075696748984,-0.186003937007874,-2.27789126085499E-17));
#274=CARTESIAN_POINT('Origin',(2.98096903492602,0.,0.));
#275=CARTESIAN_POINT('',(3.,-0.12007874015748,-1.47054044779505E-17));
#276=CARTESIAN_POINT('Origin',(3.,0.,0.));
#277=CARTESIAN_POINT('',(2.98096903492602,-0.153041338582677,-1.87421585432502E-17));
#278=CARTESIAN_POINT('Origin',(3.,0.,0.));
#279=UNCERTAINTY_MEASURE_WITH_UNIT(LENGTH_MEASURE(0.000393700787401575),
#284,'DISTANCE_ACCURACY_VALUE',
'Maximum model space distance between geometric entities at asserted c
onnectivities');
#280=UNCERTAINTY_MEASURE_WITH_UNIT(LENGTH_MEASURE(0.000393700787401575),
#284,'DISTANCE_ACCURACY_VALUE',
'Maximum model space distance between geometric entities at asserted c
onnectivities');
#281=(
GEOMETRIC_REPRESENTATION_CONTEXT(3)
GLOBAL_UNCERTAINTY_ASSIGNED_CONTEXT((#279))
GLOBAL_UNIT_ASSIGNED_CONTEXT((#284,#288,#289))
REPRESENTATION_CONTEXT('','3D')
);
#282=(
GEOMETRIC_REPRESENTATION_CONTEXT(3)
GLOBAL_UNCERTAINTY_ASSIGNED_CONTEXT((#280))
GLOBAL_UNIT_ASSIGNED_CONTEXT((#284,#288,#289))
REPRESENTATION_CONTEXT('','3D')
);
#283=DIMENSIONAL_EXPONENTS(1.,0.,0.,0.,0.,0.,0.);
#284=(
CONVERSION_BASED_UNIT('inch',#287)
LENGTH_UNIT()
NAMED_UNIT(#283)
);
#285=(
LENGTH_UNIT()
NAMED_UNIT(*)
SI_UNIT(.MILLI.,.METRE.)
);
#286=(
LENGTH_UNIT()
NAMED_UNIT(*)
SI_UNIT($,.METRE.)
);
#287=LENGTH_MEASURE_WITH_UNIT(LENGTH_MEASURE(25.4),#285);
#288=(
NAMED_UNIT(*)
PLANE_ANGLE_UNIT()
SI_UNIT($,.RADIAN.)
);
#289=(
NAMED_UNIT(*)
SI_UNIT($,.STERADIAN.)
SOLID_ANGLE_UNIT()
);
#290=SHAPE_DEFINITION_REPRESENTATION(#291,#292);
#291=PRODUCT_DEFINITION_SHAPE('',$,#294);
#292=SHAPE_REPRESENTATION('',(#162),#281);
#293=PRODUCT_DEFINITION_CONTEXT('part definition',#298,'design');
#294=PRODUCT_DEFINITION('1310-.372-1-BR','1310-.372-1-BR v4',#295,#293);
#295=PRODUCT_DEFINITION_FORMATION('',$,#300);
#296=PRODUCT_RELATED_PRODUCT_CATEGORY('1310-.372-1-BR v4',
'1310-.372-1-BR v4',(#300));
#297=APPLICATION_PROTOCOL_DEFINITION('international standard',
'automotive_design',2009,#298);
#298=APPLICATION_CONTEXT(
'Core Data for Automotive Mechanical Design Process');
#299=PRODUCT_CONTEXT('part definition',#298,'mechanical');
#300=PRODUCT('1310-.372-1-BR','1310-.372-1-BR v4',$,(#299));
#301=PRESENTATION_STYLE_ASSIGNMENT((#302));
#302=SURFACE_STYLE_USAGE(.BOTH.,#303);
#303=SURFACE_SIDE_STYLE('',(#304));
#304=SURFACE_STYLE_FILL_AREA(#305);
#305=FILL_AREA_STYLE('Steel - Satin',(#306));
#306=FILL_AREA_STYLE_COLOUR('Steel - Satin',#307);
#307=COLOUR_RGB('Steel - Satin',0.627450980392157,0.627450980392157,0.627450980392157);
ENDSEC;
END-ISO-10303-21;
