ISO-10303-21;
HEADER;
/* Generated by software containing ST-Developer
 * from STEP Tools, Inc. (www.steptools.com) 
 */

FILE_DESCRIPTION(
/* description */ (''),
/* implementation_level */ '2;1');

FILE_NAME(
/* name */ 'ER50-TA20-100.step',
/* time_stamp */ '2026-04-13T13:03:31-05:00',
/* author */ (''),
/* organization */ (''),
/* preprocessor_version */ 'ST-DEVELOPER v20.1',
/* originating_system */ 'Autodesk Translation Framework v14.24.0.0',
/* authorisation */ '');

FILE_SCHEMA (('AUTOMOTIVE_DESIGN { 1 0 10303 214 3 1 1 }'));
ENDSEC;

DATA;
#10=MECHANICAL_DESIGN_GEOMETRIC_PRESENTATION_REPRESENTATION('',(#25,#26,
#27,#28,#29,#30,#31,#32),#303);
#11=SHAPE_REPRESENTATION_RELATIONSHIP('SRR','None',#313,#12);
#12=ADVANCED_BREP_SHAPE_REPRESENTATION('',(#13),#302);
#13=MANIFOLD_SOLID_BREP('Body1',#166);
#14=FACE_BOUND('',#52,.T.);
#15=FACE_BOUND('',#55,.T.);
#16=FACE_BOUND('',#59,.T.);
#17=PLANE('',#185);
#18=PLANE('',#186);
#19=PLANE('',#192);
#20=PLANE('',#196);
#21=PLANE('',#202);
#22=CONICAL_SURFACE('',#183,0.383700787401575,0.785398163397442);
#23=CONICAL_SURFACE('',#188,0.877688965626182,0.139626340159546);
#24=CONICAL_SURFACE('',#200,0.908289764466969,0.523598775598299);
#25=STYLED_ITEM('',(#324),#155);
#26=STYLED_ITEM('',(#324),#156);
#27=STYLED_ITEM('',(#324),#157);
#28=STYLED_ITEM('',(#324),#160);
#29=STYLED_ITEM('',(#324),#161);
#30=STYLED_ITEM('',(#324),#162);
#31=STYLED_ITEM('',(#324),#165);
#32=STYLED_ITEM('',(#323),#13);
#33=FACE_OUTER_BOUND('',#45,.T.);
#34=FACE_OUTER_BOUND('',#46,.T.);
#35=FACE_OUTER_BOUND('',#47,.T.);
#36=FACE_OUTER_BOUND('',#48,.T.);
#37=FACE_OUTER_BOUND('',#49,.T.);
#38=FACE_OUTER_BOUND('',#50,.T.);
#39=FACE_OUTER_BOUND('',#51,.T.);
#40=FACE_OUTER_BOUND('',#53,.T.);
#41=FACE_OUTER_BOUND('',#54,.T.);
#42=FACE_OUTER_BOUND('',#56,.T.);
#43=FACE_OUTER_BOUND('',#57,.T.);
#44=FACE_OUTER_BOUND('',#58,.T.);
#45=EDGE_LOOP('',(#114,#115,#116,#117));
#46=EDGE_LOOP('',(#118,#119,#120,#121));
#47=EDGE_LOOP('',(#122));
#48=EDGE_LOOP('',(#123));
#49=EDGE_LOOP('',(#124,#125,#126,#127));
#50=EDGE_LOOP('',(#128,#129,#130,#131));
#51=EDGE_LOOP('',(#132));
#52=EDGE_LOOP('',(#133));
#53=EDGE_LOOP('',(#134,#135,#136,#137));
#54=EDGE_LOOP('',(#138));
#55=EDGE_LOOP('',(#139));
#56=EDGE_LOOP('',(#140,#141,#142,#143));
#57=EDGE_LOOP('',(#144,#145,#146,#147));
#58=EDGE_LOOP('',(#148));
#59=EDGE_LOOP('',(#149));
#60=LINE('',#263,#67);
#61=LINE('',#268,#68);
#62=LINE('',#276,#69);
#63=LINE('',#280,#70);
#64=LINE('',#287,#71);
#65=LINE('',#294,#72);
#66=LINE('',#298,#73);
#67=VECTOR('',#209,0.393700787401575);
#68=VECTOR('',#216,0.383700787401575);
#69=VECTOR('',#227,0.877688965626182);
#70=VECTOR('',#232,0.9845);
#71=VECTOR('',#241,0.9215);
#72=VECTOR('',#250,0.9845);
#73=VECTOR('',#255,0.908289764466969);
#74=CIRCLE('',#181,0.393700787401575);
#75=CIRCLE('',#182,0.393700787401575);
#76=CIRCLE('',#184,0.373700787401575);
#77=CIRCLE('',#187,0.770877931252365);
#78=CIRCLE('',#189,0.9845);
#79=CIRCLE('',#191,0.9845);
#80=CIRCLE('',#193,0.9215);
#81=CIRCLE('',#195,0.9215);
#82=CIRCLE('',#197,0.9845);
#83=CIRCLE('',#199,0.9845);
#84=CIRCLE('',#201,0.832079528933939);
#85=VERTEX_POINT('',#260);
#86=VERTEX_POINT('',#262);
#87=VERTEX_POINT('',#266);
#88=VERTEX_POINT('',#271);
#89=VERTEX_POINT('',#274);
#90=VERTEX_POINT('',#278);
#91=VERTEX_POINT('',#282);
#92=VERTEX_POINT('',#285);
#93=VERTEX_POINT('',#289);
#94=VERTEX_POINT('',#292);
#95=VERTEX_POINT('',#296);
#96=EDGE_CURVE('',#85,#85,#74,.T.);
#97=EDGE_CURVE('',#85,#86,#60,.T.);
#98=EDGE_CURVE('',#86,#86,#75,.T.);
#99=EDGE_CURVE('',#87,#87,#76,.T.);
#100=EDGE_CURVE('',#87,#85,#61,.T.);
#101=EDGE_CURVE('',#88,#88,#77,.T.);
#102=EDGE_CURVE('',#89,#89,#78,.T.);
#103=EDGE_CURVE('',#89,#88,#62,.T.);
#104=EDGE_CURVE('',#90,#90,#79,.T.);
#105=EDGE_CURVE('',#90,#89,#63,.T.);
#106=EDGE_CURVE('',#91,#91,#80,.T.);
#107=EDGE_CURVE('',#92,#92,#81,.T.);
#108=EDGE_CURVE('',#92,#91,#64,.T.);
#109=EDGE_CURVE('',#93,#93,#82,.T.);
#110=EDGE_CURVE('',#94,#94,#83,.T.);
#111=EDGE_CURVE('',#94,#93,#65,.T.);
#112=EDGE_CURVE('',#95,#95,#84,.T.);
#113=EDGE_CURVE('',#95,#94,#66,.T.);
#114=ORIENTED_EDGE('',*,*,#96,.F.);
#115=ORIENTED_EDGE('',*,*,#97,.T.);
#116=ORIENTED_EDGE('',*,*,#98,.T.);
#117=ORIENTED_EDGE('',*,*,#97,.F.);
#118=ORIENTED_EDGE('',*,*,#99,.F.);
#119=ORIENTED_EDGE('',*,*,#100,.T.);
#120=ORIENTED_EDGE('',*,*,#96,.T.);
#121=ORIENTED_EDGE('',*,*,#100,.F.);
#122=ORIENTED_EDGE('',*,*,#99,.T.);
#123=ORIENTED_EDGE('',*,*,#101,.F.);
#124=ORIENTED_EDGE('',*,*,#102,.F.);
#125=ORIENTED_EDGE('',*,*,#103,.T.);
#126=ORIENTED_EDGE('',*,*,#101,.T.);
#127=ORIENTED_EDGE('',*,*,#103,.F.);
#128=ORIENTED_EDGE('',*,*,#104,.F.);
#129=ORIENTED_EDGE('',*,*,#105,.T.);
#130=ORIENTED_EDGE('',*,*,#102,.T.);
#131=ORIENTED_EDGE('',*,*,#105,.F.);
#132=ORIENTED_EDGE('',*,*,#104,.T.);
#133=ORIENTED_EDGE('',*,*,#106,.F.);
#134=ORIENTED_EDGE('',*,*,#107,.F.);
#135=ORIENTED_EDGE('',*,*,#108,.T.);
#136=ORIENTED_EDGE('',*,*,#106,.T.);
#137=ORIENTED_EDGE('',*,*,#108,.F.);
#138=ORIENTED_EDGE('',*,*,#109,.F.);
#139=ORIENTED_EDGE('',*,*,#107,.T.);
#140=ORIENTED_EDGE('',*,*,#110,.F.);
#141=ORIENTED_EDGE('',*,*,#111,.T.);
#142=ORIENTED_EDGE('',*,*,#109,.T.);
#143=ORIENTED_EDGE('',*,*,#111,.F.);
#144=ORIENTED_EDGE('',*,*,#112,.F.);
#145=ORIENTED_EDGE('',*,*,#113,.T.);
#146=ORIENTED_EDGE('',*,*,#110,.T.);
#147=ORIENTED_EDGE('',*,*,#113,.F.);
#148=ORIENTED_EDGE('',*,*,#112,.T.);
#149=ORIENTED_EDGE('',*,*,#98,.F.);
#150=CYLINDRICAL_SURFACE('',#180,0.393700787401575);
#151=CYLINDRICAL_SURFACE('',#190,0.9845);
#152=CYLINDRICAL_SURFACE('',#194,0.9215);
#153=CYLINDRICAL_SURFACE('',#198,0.9845);
#154=ADVANCED_FACE('',(#33),#150,.T.);
#155=ADVANCED_FACE('',(#34),#22,.T.);
#156=ADVANCED_FACE('',(#35),#17,.T.);
#157=ADVANCED_FACE('',(#36),#18,.T.);
#158=ADVANCED_FACE('',(#37),#23,.T.);
#159=ADVANCED_FACE('',(#38),#151,.T.);
#160=ADVANCED_FACE('',(#39,#14),#19,.T.);
#161=ADVANCED_FACE('',(#40),#152,.T.);
#162=ADVANCED_FACE('',(#41,#15),#20,.T.);
#163=ADVANCED_FACE('',(#42),#153,.T.);
#164=ADVANCED_FACE('',(#43),#24,.T.);
#165=ADVANCED_FACE('',(#44,#16),#21,.T.);
#166=CLOSED_SHELL('',(#154,#155,#156,#157,#158,#159,#160,#161,#162,#163,
#164,#165));
#167=DERIVED_UNIT_ELEMENT(#169,1.);
#168=DERIVED_UNIT_ELEMENT(#307,-3.);
#169=(
MASS_UNIT()
NAMED_UNIT(*)
SI_UNIT(.KILO.,.GRAM.)
);
#170=DERIVED_UNIT((#167,#168));
#171=MEASURE_REPRESENTATION_ITEM('density measure',
POSITIVE_RATIO_MEASURE(7850.),#170);
#172=PROPERTY_DEFINITION_REPRESENTATION(#177,#174);
#173=PROPERTY_DEFINITION_REPRESENTATION(#178,#175);
#174=REPRESENTATION('material name',(#176),#302);
#175=REPRESENTATION('density',(#171),#302);
#176=DESCRIPTIVE_REPRESENTATION_ITEM('Steel','Steel');
#177=PROPERTY_DEFINITION('material property','material name',#315);
#178=PROPERTY_DEFINITION('material property','density of part',#315);
#179=AXIS2_PLACEMENT_3D('',#258,#203,#204);
#180=AXIS2_PLACEMENT_3D('',#259,#205,#206);
#181=AXIS2_PLACEMENT_3D('',#261,#207,#208);
#182=AXIS2_PLACEMENT_3D('',#264,#210,#211);
#183=AXIS2_PLACEMENT_3D('',#265,#212,#213);
#184=AXIS2_PLACEMENT_3D('',#267,#214,#215);
#185=AXIS2_PLACEMENT_3D('',#269,#217,#218);
#186=AXIS2_PLACEMENT_3D('',#270,#219,#220);
#187=AXIS2_PLACEMENT_3D('',#272,#221,#222);
#188=AXIS2_PLACEMENT_3D('',#273,#223,#224);
#189=AXIS2_PLACEMENT_3D('',#275,#225,#226);
#190=AXIS2_PLACEMENT_3D('',#277,#228,#229);
#191=AXIS2_PLACEMENT_3D('',#279,#230,#231);
#192=AXIS2_PLACEMENT_3D('',#281,#233,#234);
#193=AXIS2_PLACEMENT_3D('',#283,#235,#236);
#194=AXIS2_PLACEMENT_3D('',#284,#237,#238);
#195=AXIS2_PLACEMENT_3D('',#286,#239,#240);
#196=AXIS2_PLACEMENT_3D('',#288,#242,#243);
#197=AXIS2_PLACEMENT_3D('',#290,#244,#245);
#198=AXIS2_PLACEMENT_3D('',#291,#246,#247);
#199=AXIS2_PLACEMENT_3D('',#293,#248,#249);
#200=AXIS2_PLACEMENT_3D('',#295,#251,#252);
#201=AXIS2_PLACEMENT_3D('',#297,#253,#254);
#202=AXIS2_PLACEMENT_3D('',#299,#256,#257);
#203=DIRECTION('axis',(0.,0.,1.));
#204=DIRECTION('refdir',(1.,0.,0.));
#205=DIRECTION('center_axis',(0.,0.,-1.));
#206=DIRECTION('ref_axis',(0.,1.,0.));
#207=DIRECTION('center_axis',(0.,0.,-1.));
#208=DIRECTION('ref_axis',(1.,0.,0.));
#209=DIRECTION('',(0.,0.,1.));
#210=DIRECTION('center_axis',(0.,0.,-1.));
#211=DIRECTION('ref_axis',(1.,0.,0.));
#212=DIRECTION('center_axis',(0.,0.,1.));
#213=DIRECTION('ref_axis',(0.,1.,0.));
#214=DIRECTION('center_axis',(0.,0.,-1.));
#215=DIRECTION('ref_axis',(1.,0.,0.));
#216=DIRECTION('',(-8.65956056235487E-17,-0.707106781186543,0.707106781186552));
#217=DIRECTION('center_axis',(0.,0.,-1.));
#218=DIRECTION('ref_axis',(-1.,0.,0.));
#219=DIRECTION('center_axis',(0.,0.,1.));
#220=DIRECTION('ref_axis',(1.,0.,0.));
#221=DIRECTION('center_axis',(0.,0.,-1.));
#222=DIRECTION('ref_axis',(1.,0.,0.));
#223=DIRECTION('center_axis',(0.,0.,-1.));
#224=DIRECTION('ref_axis',(0.,1.,0.));
#225=DIRECTION('center_axis',(0.,0.,-1.));
#226=DIRECTION('ref_axis',(1.,0.,0.));
#227=DIRECTION('',(1.70437892618156E-17,0.139173100960065,0.99026806874157));
#228=DIRECTION('center_axis',(0.,0.,-1.));
#229=DIRECTION('ref_axis',(0.,1.,0.));
#230=DIRECTION('center_axis',(0.,0.,-1.));
#231=DIRECTION('ref_axis',(1.,0.,0.));
#232=DIRECTION('',(0.,0.,1.));
#233=DIRECTION('center_axis',(0.,0.,-1.));
#234=DIRECTION('ref_axis',(-1.,0.,0.));
#235=DIRECTION('center_axis',(0.,0.,-1.));
#236=DIRECTION('ref_axis',(1.,0.,0.));
#237=DIRECTION('center_axis',(0.,0.,-1.));
#238=DIRECTION('ref_axis',(0.,1.,0.));
#239=DIRECTION('center_axis',(0.,0.,-1.));
#240=DIRECTION('ref_axis',(1.,0.,0.));
#241=DIRECTION('',(0.,0.,1.));
#242=DIRECTION('center_axis',(0.,0.,1.));
#243=DIRECTION('ref_axis',(1.,0.,0.));
#244=DIRECTION('center_axis',(0.,0.,-1.));
#245=DIRECTION('ref_axis',(1.,0.,0.));
#246=DIRECTION('center_axis',(0.,0.,-1.));
#247=DIRECTION('ref_axis',(0.,1.,0.));
#248=DIRECTION('center_axis',(0.,0.,-1.));
#249=DIRECTION('ref_axis',(1.,0.,0.));
#250=DIRECTION('',(0.,0.,1.));
#251=DIRECTION('center_axis',(0.,0.,1.));
#252=DIRECTION('ref_axis',(0.,1.,0.));
#253=DIRECTION('center_axis',(0.,0.,-1.));
#254=DIRECTION('ref_axis',(1.,0.,0.));
#255=DIRECTION('',(-6.12323399573677E-17,-0.5,0.866025403784438));
#256=DIRECTION('center_axis',(0.,0.,-1.));
#257=DIRECTION('ref_axis',(-1.,0.,0.));
#258=CARTESIAN_POINT('',(0.,0.,0.));
#259=CARTESIAN_POINT('Origin',(0.,0.,-1.95850393700787));
#260=CARTESIAN_POINT('',(-4.82144409113131E-17,-0.393700787401575,-3.91700787401575));
#261=CARTESIAN_POINT('Origin',(0.,0.,-3.91700787401575));
#262=CARTESIAN_POINT('',(-4.82144409113131E-17,-0.393700787401575,0.));
#263=CARTESIAN_POINT('',(-4.82144409113131E-17,-0.393700787401575,-1.95850393700787));
#264=CARTESIAN_POINT('Origin',(0.,0.,0.));
#265=CARTESIAN_POINT('Origin',(0.,0.,-3.92700787401575));
#266=CARTESIAN_POINT('',(-4.57651473130184E-17,-0.373700787401575,-3.93700787401575));
#267=CARTESIAN_POINT('Origin',(0.,0.,-3.93700787401575));
#268=CARTESIAN_POINT('',(-4.69897941121658E-17,-0.383700787401575,-3.92700787401575));
#269=CARTESIAN_POINT('Origin',(0.,0.,-3.93700787401575));
#270=CARTESIAN_POINT('Origin',(0.,0.770877931252365,2.364));
#271=CARTESIAN_POINT('',(-9.44053191041542E-17,-0.770877931252365,2.364));
#272=CARTESIAN_POINT('Origin',(0.,0.,2.364));
#273=CARTESIAN_POINT('Origin',(0.,0.,1.604));
#274=CARTESIAN_POINT('',(-1.20566477376057E-16,-0.9845,0.844));
#275=CARTESIAN_POINT('Origin',(0.,0.,0.844));
#276=CARTESIAN_POINT('',(-1.07485898240106E-16,-0.877688965626182,1.604));
#277=CARTESIAN_POINT('Origin',(0.,0.,0.698));
#278=CARTESIAN_POINT('',(-1.20566477376057E-16,-0.9845,0.552));
#279=CARTESIAN_POINT('Origin',(0.,0.,0.552));
#280=CARTESIAN_POINT('',(-1.20566477376057E-16,-0.9845,0.698));
#281=CARTESIAN_POINT('Origin',(0.,0.9215,0.552));
#282=CARTESIAN_POINT('',(-1.12851202541429E-16,-0.9215,0.552));
#283=CARTESIAN_POINT('Origin',(0.,0.,0.552));
#284=CARTESIAN_POINT('Origin',(0.,0.,0.443));
#285=CARTESIAN_POINT('',(-1.12851202541429E-16,-0.9215,0.334));
#286=CARTESIAN_POINT('Origin',(0.,0.,0.334));
#287=CARTESIAN_POINT('',(-1.12851202541429E-16,-0.9215,0.443));
#288=CARTESIAN_POINT('Origin',(0.,0.9845,0.334));
#289=CARTESIAN_POINT('',(-1.20566477376057E-16,-0.9845,0.334));
#290=CARTESIAN_POINT('Origin',(0.,0.,0.334));
#291=CARTESIAN_POINT('Origin',(0.,0.,0.299));
#292=CARTESIAN_POINT('',(-1.20566477376057E-16,-0.9845,0.264));
#293=CARTESIAN_POINT('Origin',(0.,0.,0.264));
#294=CARTESIAN_POINT('',(-1.20566477376057E-16,-0.9845,0.299));
#295=CARTESIAN_POINT('Origin',(0.,0.,0.132));
#296=CARTESIAN_POINT('',(-1.01900353174499E-16,-0.832079528933939,-2.18547839493141E-17));
#297=CARTESIAN_POINT('Origin',(0.,0.,0.));
#298=CARTESIAN_POINT('',(-1.11233415275278E-16,-0.908289764466969,0.132));
#299=CARTESIAN_POINT('Origin',(0.,0.393700787401575,0.));
#300=UNCERTAINTY_MEASURE_WITH_UNIT(LENGTH_MEASURE(0.000393700787401575),
#305,'DISTANCE_ACCURACY_VALUE',
'Maximum model space distance between geometric entities at asserted c
onnectivities');
#301=UNCERTAINTY_MEASURE_WITH_UNIT(LENGTH_MEASURE(0.000393700787401575),
#305,'DISTANCE_ACCURACY_VALUE',
'Maximum model space distance between geometric entities at asserted c
onnectivities');
#302=(
GEOMETRIC_REPRESENTATION_CONTEXT(3)
GLOBAL_UNCERTAINTY_ASSIGNED_CONTEXT((#300))
GLOBAL_UNIT_ASSIGNED_CONTEXT((#305,#309,#310))
REPRESENTATION_CONTEXT('','3D')
);
#303=(
GEOMETRIC_REPRESENTATION_CONTEXT(3)
GLOBAL_UNCERTAINTY_ASSIGNED_CONTEXT((#301))
GLOBAL_UNIT_ASSIGNED_CONTEXT((#305,#309,#310))
REPRESENTATION_CONTEXT('','3D')
);
#304=DIMENSIONAL_EXPONENTS(1.,0.,0.,0.,0.,0.,0.);
#305=(
CONVERSION_BASED_UNIT('inch',#308)
LENGTH_UNIT()
NAMED_UNIT(#304)
);
#306=(
LENGTH_UNIT()
NAMED_UNIT(*)
SI_UNIT(.MILLI.,.METRE.)
);
#307=(
LENGTH_UNIT()
NAMED_UNIT(*)
SI_UNIT($,.METRE.)
);
#308=LENGTH_MEASURE_WITH_UNIT(LENGTH_MEASURE(25.4),#306);
#309=(
NAMED_UNIT(*)
PLANE_ANGLE_UNIT()
SI_UNIT($,.RADIAN.)
);
#310=(
NAMED_UNIT(*)
SI_UNIT($,.STERADIAN.)
SOLID_ANGLE_UNIT()
);
#311=SHAPE_DEFINITION_REPRESENTATION(#312,#313);
#312=PRODUCT_DEFINITION_SHAPE('',$,#315);
#313=SHAPE_REPRESENTATION('',(#179),#302);
#314=PRODUCT_DEFINITION_CONTEXT('part definition',#319,'design');
#315=PRODUCT_DEFINITION('2026-04-13-12-43-22-272','ER50-TA20-100',#316,
#314);
#316=PRODUCT_DEFINITION_FORMATION('',$,#321);
#317=PRODUCT_RELATED_PRODUCT_CATEGORY('ER50-TA20-100','ER50-TA20-100',(#321));
#318=APPLICATION_PROTOCOL_DEFINITION('international standard',
'automotive_design',2009,#319);
#319=APPLICATION_CONTEXT(
'Core Data for Automotive Mechanical Design Process');
#320=PRODUCT_CONTEXT('part definition',#319,'mechanical');
#321=PRODUCT('2026-04-13-12-43-22-272','ER50-TA20-100',$,(#320));
#322=PRESENTATION_STYLE_ASSIGNMENT((#325));
#323=PRESENTATION_STYLE_ASSIGNMENT((#326));
#324=PRESENTATION_STYLE_ASSIGNMENT((#327));
#325=SURFACE_STYLE_USAGE(.BOTH.,#328);
#326=SURFACE_STYLE_USAGE(.BOTH.,#329);
#327=SURFACE_STYLE_USAGE(.BOTH.,#330);
#328=SURFACE_SIDE_STYLE('',(#331));
#329=SURFACE_SIDE_STYLE('',(#332));
#330=SURFACE_SIDE_STYLE('',(#333));
#331=SURFACE_STYLE_FILL_AREA(#334);
#332=SURFACE_STYLE_FILL_AREA(#335);
#333=SURFACE_STYLE_FILL_AREA(#336);
#334=FILL_AREA_STYLE('Steel - Satin',(#337));
#335=FILL_AREA_STYLE('Opaque(255,255,255)',(#338));
#336=FILL_AREA_STYLE('Opaque(44,44,44)',(#339));
#337=FILL_AREA_STYLE_COLOUR('Steel - Satin',#340);
#338=FILL_AREA_STYLE_COLOUR('Opaque(255,255,255)',#341);
#339=FILL_AREA_STYLE_COLOUR('Opaque(44,44,44)',#342);
#340=COLOUR_RGB('Steel - Satin',0.627450980392157,0.627450980392157,0.627450980392157);
#341=COLOUR_RGB('Opaque(255,255,255)',1.,1.,1.);
#342=COLOUR_RGB('Opaque(44,44,44)',0.172549019607843,0.172549019607843,
0.172549019607843);
ENDSEC;
END-ISO-10303-21;
