ISO-10303-21;
HEADER;
/* Generated by software containing ST-Developer
 * from STEP Tools, Inc. (www.steptools.com) 
 */

FILE_DESCRIPTION(
/* description */ (''),
/* implementation_level */ '2;1');

FILE_NAME(
/* name */ '1310-.080-1-BR.step',
/* time_stamp */ '2025-11-21T09:50:01-06:00',
/* author */ (''),
/* organization */ (''),
/* preprocessor_version */ 'ST-DEVELOPER v20.1',
/* originating_system */ 'Autodesk Translation Framework v14.21.0.0',
/* authorisation */ '');

FILE_SCHEMA (('AUTOMOTIVE_DESIGN { 1 0 10303 214 3 1 1 }'));
ENDSEC;

DATA;
#10=MECHANICAL_DESIGN_GEOMETRIC_PRESENTATION_REPRESENTATION('',(#13),#282);
#11=SHAPE_REPRESENTATION_RELATIONSHIP('SRR','None',#292,#12);
#12=ADVANCED_BREP_SHAPE_REPRESENTATION('',(#14),#281);
#13=STYLED_ITEM('',(#301),#14);
#14=MANIFOLD_SOLID_BREP('Body1',#149);
#15=PLANE('',#177);
#16=PLANE('',#178);
#17=CONICAL_SURFACE('',#171,0.0312204724409449,1.04719755119661);
#18=CONICAL_SURFACE('',#175,0.031220472440945,1.04719755119661);
#19=CONICAL_SURFACE('',#180,0.0839074803149606,0.785398163397449);
#20=CONICAL_SURFACE('',#184,0.0604697787092162,0.349065850398866);
#21=LINE('',#252,#28);
#22=LINE('',#256,#29);
#23=LINE('',#260,#30);
#24=LINE('',#264,#31);
#25=LINE('',#272,#32);
#26=LINE('',#276,#33);
#27=LINE('',#278,#34);
#28=VECTOR('',#203,0.0224409448818898);
#29=VECTOR('',#208,0.0312204724409449);
#30=VECTOR('',#213,0.0400000000000001);
#31=VECTOR('',#218,0.031220472440945);
#32=VECTOR('',#229,0.0839074803149606);
#33=VECTOR('',#234,0.09375);
#34=VECTOR('',#237,0.0604697787092162);
#35=CYLINDRICAL_SURFACE('',#169,0.0224409448818898);
#36=CYLINDRICAL_SURFACE('',#173,0.0400000000000001);
#37=CYLINDRICAL_SURFACE('',#182,0.09375);
#38=FACE_OUTER_BOUND('',#48,.T.);
#39=FACE_OUTER_BOUND('',#49,.T.);
#40=FACE_OUTER_BOUND('',#50,.T.);
#41=FACE_OUTER_BOUND('',#51,.T.);
#42=FACE_OUTER_BOUND('',#52,.T.);
#43=FACE_OUTER_BOUND('',#53,.T.);
#44=FACE_OUTER_BOUND('',#54,.T.);
#45=FACE_OUTER_BOUND('',#55,.T.);
#46=FACE_OUTER_BOUND('',#56,.T.);
#47=FACE_OUTER_BOUND('',#57,.T.);
#48=EDGE_LOOP('',(#100,#101,#102,#103,#104,#105));
#49=EDGE_LOOP('',(#106,#107,#108,#109,#110));
#50=EDGE_LOOP('',(#111,#112,#113,#114));
#51=EDGE_LOOP('',(#115,#116,#117,#118));
#52=EDGE_LOOP('',(#119,#120,#121,#122));
#53=EDGE_LOOP('',(#123));
#54=EDGE_LOOP('',(#124));
#55=EDGE_LOOP('',(#125,#126,#127,#128));
#56=EDGE_LOOP('',(#129,#130,#131,#132));
#57=EDGE_LOOP('',(#133,#134,#135,#136,#137));
#58=CIRCLE('',#164,0.0271895574184324);
#59=CIRCLE('',#165,0.078740157480315);
#60=CIRCLE('',#166,0.0224409448818898);
#61=CIRCLE('',#167,0.0224409448818898);
#62=CIRCLE('',#168,0.0271895574184324);
#63=CIRCLE('',#170,0.0224409448818898);
#64=CIRCLE('',#172,0.0400000000000001);
#65=CIRCLE('',#174,0.0400000000000001);
#66=CIRCLE('',#176,0.0224409448818898);
#67=CIRCLE('',#179,0.0740649606299213);
#68=CIRCLE('',#181,0.09375);
#69=CIRCLE('',#183,0.09375);
#70=VERTEX_POINT('',#240);
#71=VERTEX_POINT('',#241);
#72=VERTEX_POINT('',#243);
#73=VERTEX_POINT('',#245);
#74=VERTEX_POINT('',#250);
#75=VERTEX_POINT('',#254);
#76=VERTEX_POINT('',#258);
#77=VERTEX_POINT('',#262);
#78=VERTEX_POINT('',#267);
#79=VERTEX_POINT('',#270);
#80=VERTEX_POINT('',#274);
#81=EDGE_CURVE('',#70,#71,#58,.T.);
#82=EDGE_CURVE('',#71,#72,#59,.T.);
#83=EDGE_CURVE('',#73,#72,#60,.T.);
#84=EDGE_CURVE('',#72,#73,#61,.T.);
#85=EDGE_CURVE('',#71,#70,#62,.T.);
#86=EDGE_CURVE('',#74,#74,#63,.T.);
#87=EDGE_CURVE('',#74,#73,#21,.T.);
#88=EDGE_CURVE('',#75,#75,#64,.T.);
#89=EDGE_CURVE('',#75,#74,#22,.T.);
#90=EDGE_CURVE('',#76,#76,#65,.T.);
#91=EDGE_CURVE('',#76,#75,#23,.T.);
#92=EDGE_CURVE('',#77,#77,#66,.T.);
#93=EDGE_CURVE('',#77,#76,#24,.T.);
#94=EDGE_CURVE('',#78,#78,#67,.T.);
#95=EDGE_CURVE('',#79,#79,#68,.T.);
#96=EDGE_CURVE('',#79,#78,#25,.T.);
#97=EDGE_CURVE('',#80,#80,#69,.T.);
#98=EDGE_CURVE('',#80,#79,#26,.T.);
#99=EDGE_CURVE('',#70,#80,#27,.T.);
#100=ORIENTED_EDGE('',*,*,#81,.T.);
#101=ORIENTED_EDGE('',*,*,#82,.T.);
#102=ORIENTED_EDGE('',*,*,#83,.F.);
#103=ORIENTED_EDGE('',*,*,#84,.F.);
#104=ORIENTED_EDGE('',*,*,#82,.F.);
#105=ORIENTED_EDGE('',*,*,#85,.T.);
#106=ORIENTED_EDGE('',*,*,#86,.F.);
#107=ORIENTED_EDGE('',*,*,#87,.T.);
#108=ORIENTED_EDGE('',*,*,#83,.T.);
#109=ORIENTED_EDGE('',*,*,#84,.T.);
#110=ORIENTED_EDGE('',*,*,#87,.F.);
#111=ORIENTED_EDGE('',*,*,#88,.F.);
#112=ORIENTED_EDGE('',*,*,#89,.T.);
#113=ORIENTED_EDGE('',*,*,#86,.T.);
#114=ORIENTED_EDGE('',*,*,#89,.F.);
#115=ORIENTED_EDGE('',*,*,#90,.F.);
#116=ORIENTED_EDGE('',*,*,#91,.T.);
#117=ORIENTED_EDGE('',*,*,#88,.T.);
#118=ORIENTED_EDGE('',*,*,#91,.F.);
#119=ORIENTED_EDGE('',*,*,#92,.F.);
#120=ORIENTED_EDGE('',*,*,#93,.T.);
#121=ORIENTED_EDGE('',*,*,#90,.T.);
#122=ORIENTED_EDGE('',*,*,#93,.F.);
#123=ORIENTED_EDGE('',*,*,#92,.T.);
#124=ORIENTED_EDGE('',*,*,#94,.F.);
#125=ORIENTED_EDGE('',*,*,#95,.F.);
#126=ORIENTED_EDGE('',*,*,#96,.T.);
#127=ORIENTED_EDGE('',*,*,#94,.T.);
#128=ORIENTED_EDGE('',*,*,#96,.F.);
#129=ORIENTED_EDGE('',*,*,#97,.F.);
#130=ORIENTED_EDGE('',*,*,#98,.T.);
#131=ORIENTED_EDGE('',*,*,#95,.T.);
#132=ORIENTED_EDGE('',*,*,#98,.F.);
#133=ORIENTED_EDGE('',*,*,#81,.F.);
#134=ORIENTED_EDGE('',*,*,#99,.T.);
#135=ORIENTED_EDGE('',*,*,#97,.T.);
#136=ORIENTED_EDGE('',*,*,#99,.F.);
#137=ORIENTED_EDGE('',*,*,#85,.F.);
#138=TOROIDAL_SURFACE('',#163,0.101181102362205,0.078740157480315);
#139=ADVANCED_FACE('',(#38),#138,.F.);
#140=ADVANCED_FACE('',(#39),#35,.T.);
#141=ADVANCED_FACE('',(#40),#17,.T.);
#142=ADVANCED_FACE('',(#41),#36,.T.);
#143=ADVANCED_FACE('',(#42),#18,.T.);
#144=ADVANCED_FACE('',(#43),#15,.T.);
#145=ADVANCED_FACE('',(#44),#16,.T.);
#146=ADVANCED_FACE('',(#45),#19,.T.);
#147=ADVANCED_FACE('',(#46),#37,.T.);
#148=ADVANCED_FACE('',(#47),#20,.T.);
#149=CLOSED_SHELL('',(#139,#140,#141,#142,#143,#144,#145,#146,#147,#148));
#150=DERIVED_UNIT_ELEMENT(#152,1.);
#151=DERIVED_UNIT_ELEMENT(#286,-3.);
#152=(
MASS_UNIT()
NAMED_UNIT(*)
SI_UNIT(.KILO.,.GRAM.)
);
#153=DERIVED_UNIT((#150,#151));
#154=MEASURE_REPRESENTATION_ITEM('density measure',
POSITIVE_RATIO_MEASURE(7850.),#153);
#155=PROPERTY_DEFINITION_REPRESENTATION(#160,#157);
#156=PROPERTY_DEFINITION_REPRESENTATION(#161,#158);
#157=REPRESENTATION('material name',(#159),#281);
#158=REPRESENTATION('density',(#154),#281);
#159=DESCRIPTIVE_REPRESENTATION_ITEM('Steel','Steel');
#160=PROPERTY_DEFINITION('material property','material name',#294);
#161=PROPERTY_DEFINITION('material property','density of part',#294);
#162=AXIS2_PLACEMENT_3D('',#238,#185,#186);
#163=AXIS2_PLACEMENT_3D('',#239,#187,#188);
#164=AXIS2_PLACEMENT_3D('',#242,#189,#190);
#165=AXIS2_PLACEMENT_3D('',#244,#191,#192);
#166=AXIS2_PLACEMENT_3D('',#246,#193,#194);
#167=AXIS2_PLACEMENT_3D('',#247,#195,#196);
#168=AXIS2_PLACEMENT_3D('',#248,#197,#198);
#169=AXIS2_PLACEMENT_3D('',#249,#199,#200);
#170=AXIS2_PLACEMENT_3D('',#251,#201,#202);
#171=AXIS2_PLACEMENT_3D('',#253,#204,#205);
#172=AXIS2_PLACEMENT_3D('',#255,#206,#207);
#173=AXIS2_PLACEMENT_3D('',#257,#209,#210);
#174=AXIS2_PLACEMENT_3D('',#259,#211,#212);
#175=AXIS2_PLACEMENT_3D('',#261,#214,#215);
#176=AXIS2_PLACEMENT_3D('',#263,#216,#217);
#177=AXIS2_PLACEMENT_3D('',#265,#219,#220);
#178=AXIS2_PLACEMENT_3D('',#266,#221,#222);
#179=AXIS2_PLACEMENT_3D('',#268,#223,#224);
#180=AXIS2_PLACEMENT_3D('',#269,#225,#226);
#181=AXIS2_PLACEMENT_3D('',#271,#227,#228);
#182=AXIS2_PLACEMENT_3D('',#273,#230,#231);
#183=AXIS2_PLACEMENT_3D('',#275,#232,#233);
#184=AXIS2_PLACEMENT_3D('',#277,#235,#236);
#185=DIRECTION('axis',(0.,0.,1.));
#186=DIRECTION('refdir',(1.,0.,0.));
#187=DIRECTION('center_axis',(1.,0.,0.));
#188=DIRECTION('ref_axis',(0.,0.,-1.));
#189=DIRECTION('center_axis',(1.,0.,0.));
#190=DIRECTION('ref_axis',(0.,0.,-1.));
#191=DIRECTION('center_axis',(0.,-1.,-1.22464679914735E-16));
#192=DIRECTION('ref_axis',(0.,-1.22464679914735E-16,1.));
#193=DIRECTION('center_axis',(1.,0.,0.));
#194=DIRECTION('ref_axis',(0.,0.,-1.));
#195=DIRECTION('center_axis',(1.,0.,0.));
#196=DIRECTION('ref_axis',(0.,0.,-1.));
#197=DIRECTION('center_axis',(1.,0.,0.));
#198=DIRECTION('ref_axis',(0.,0.,-1.));
#199=DIRECTION('center_axis',(1.,0.,0.));
#200=DIRECTION('ref_axis',(0.,1.,0.));
#201=DIRECTION('center_axis',(1.,0.,0.));
#202=DIRECTION('ref_axis',(0.,0.,-1.));
#203=DIRECTION('',(-1.,0.,0.));
#204=DIRECTION('center_axis',(1.,0.,0.));
#205=DIRECTION('ref_axis',(0.,1.,0.));
#206=DIRECTION('center_axis',(1.,0.,0.));
#207=DIRECTION('ref_axis',(0.,0.,-1.));
#208=DIRECTION('',(-0.499999999999985,0.866025403784447,1.06057523872492E-16));
#209=DIRECTION('center_axis',(1.,0.,0.));
#210=DIRECTION('ref_axis',(0.,1.,0.));
#211=DIRECTION('center_axis',(1.,0.,0.));
#212=DIRECTION('ref_axis',(0.,0.,-1.));
#213=DIRECTION('',(-1.,0.,0.));
#214=DIRECTION('center_axis',(-1.,0.,0.));
#215=DIRECTION('ref_axis',(0.,1.,0.));
#216=DIRECTION('center_axis',(1.,0.,0.));
#217=DIRECTION('ref_axis',(0.,0.,-1.));
#218=DIRECTION('',(-0.499999999999986,-0.866025403784447,-1.06057523872492E-16));
#219=DIRECTION('center_axis',(1.,0.,0.));
#220=DIRECTION('ref_axis',(0.,0.,-1.));
#221=DIRECTION('center_axis',(-1.,0.,0.));
#222=DIRECTION('ref_axis',(0.,0.,1.));
#223=DIRECTION('center_axis',(1.,0.,0.));
#224=DIRECTION('ref_axis',(0.,0.,-1.));
#225=DIRECTION('center_axis',(1.,0.,0.));
#226=DIRECTION('ref_axis',(0.,1.,0.));
#227=DIRECTION('center_axis',(1.,0.,0.));
#228=DIRECTION('ref_axis',(0.,0.,-1.));
#229=DIRECTION('',(-0.707106781186547,0.707106781186548,8.65956056235493E-17));
#230=DIRECTION('center_axis',(1.,0.,0.));
#231=DIRECTION('ref_axis',(0.,1.,0.));
#232=DIRECTION('center_axis',(1.,0.,0.));
#233=DIRECTION('ref_axis',(0.,0.,-1.));
#234=DIRECTION('',(-1.,0.,0.));
#235=DIRECTION('center_axis',(-1.,0.,0.));
#236=DIRECTION('ref_axis',(0.,1.,0.));
#237=DIRECTION('',(-0.939692620785909,-0.342020143325668,-4.18853873767699E-17));
#238=CARTESIAN_POINT('',(0.,0.,0.));
#239=CARTESIAN_POINT('Origin',(2.28926363603677,0.,0.));
#240=CARTESIAN_POINT('',(2.26233291608986,-0.0271895574184325,-3.32976044627165E-18));
#241=CARTESIAN_POINT('',(2.26233291608986,-3.32976044627164E-18,0.0271895574184324));
#242=CARTESIAN_POINT('Origin',(2.26233291608986,0.,0.));
#243=CARTESIAN_POINT('',(2.28926363603677,-2.74822313194485E-18,0.0224409448818898));
#244=CARTESIAN_POINT('Origin',(2.28926363603677,-1.23911113142075E-17,0.101181102362205));
#245=CARTESIAN_POINT('',(2.28926363603677,-0.0224409448818898,-2.74822313194485E-18));
#246=CARTESIAN_POINT('Origin',(2.28926363603677,0.,0.));
#247=CARTESIAN_POINT('Origin',(2.28926363603677,0.,0.));
#248=CARTESIAN_POINT('Origin',(2.26233291608986,0.,0.));
#249=CARTESIAN_POINT('Origin',(2.38370669124442,0.,0.));
#250=CARTESIAN_POINT('',(2.47814974645208,-0.0224409448818898,-2.74822313194485E-18));
#251=CARTESIAN_POINT('Origin',(2.47814974645208,0.,0.));
#252=CARTESIAN_POINT('',(2.38370669124442,-0.0224409448818898,-2.74822313194485E-18));
#253=CARTESIAN_POINT('Origin',(2.48321860905166,0.,0.));
#254=CARTESIAN_POINT('',(2.48828747165124,-0.0400000000000001,-4.89858719658943E-18));
#255=CARTESIAN_POINT('Origin',(2.48828747165124,0.,0.));
#256=CARTESIAN_POINT('',(2.48321860905166,-0.0312204724409449,-3.82340516426714E-18));
#257=CARTESIAN_POINT('Origin',(2.48907487322604,0.,0.));
#258=CARTESIAN_POINT('',(2.48986227480084,-0.0400000000000001,-4.89858719658943E-18));
#259=CARTESIAN_POINT('Origin',(2.48986227480084,0.,0.));
#260=CARTESIAN_POINT('',(2.48907487322604,-0.0400000000000001,-4.89858719658943E-18));
#261=CARTESIAN_POINT('Origin',(2.49493113740042,0.,0.));
#262=CARTESIAN_POINT('',(2.5,-0.0224409448818898,-2.74822313194485E-18));
#263=CARTESIAN_POINT('Origin',(2.5,0.,0.));
#264=CARTESIAN_POINT('',(2.49493113740042,-0.031220472440945,-3.82340516426714E-18));
#265=CARTESIAN_POINT('Origin',(2.5,0.,0.));
#266=CARTESIAN_POINT('Origin',(0.,0.0740649606299213,0.));
#267=CARTESIAN_POINT('',(6.55643518479423E-17,-0.0740649606299212,-9.07034169644077E-18));
#268=CARTESIAN_POINT('Origin',(0.,0.,0.));
#269=CARTESIAN_POINT('Origin',(0.00984251968503951,0.,0.));
#270=CARTESIAN_POINT('',(0.0196850393700788,-0.0937499999999999,-1.14810637420064E-17));
#271=CARTESIAN_POINT('Origin',(0.0196850393700787,0.,0.));
#272=CARTESIAN_POINT('',(0.00984251968503951,-0.0839074803149606,-1.02757027192236E-17));
#273=CARTESIAN_POINT('Origin',(1.04957232121909,0.,0.));
#274=CARTESIAN_POINT('',(2.0794596030681,-0.09375,-1.14810637420064E-17));
#275=CARTESIAN_POINT('Origin',(2.0794596030681,0.,0.));
#276=CARTESIAN_POINT('',(1.04957232121909,-0.09375,-1.14810637420064E-17));
#277=CARTESIAN_POINT('Origin',(2.17089625957898,0.,0.));
#278=CARTESIAN_POINT('',(2.17089625957898,-0.0604697787092162,-7.40541209413904E-18));
#279=UNCERTAINTY_MEASURE_WITH_UNIT(LENGTH_MEASURE(0.000393700787401575),
#284,'DISTANCE_ACCURACY_VALUE',
'Maximum model space distance between geometric entities at asserted c
onnectivities');
#280=UNCERTAINTY_MEASURE_WITH_UNIT(LENGTH_MEASURE(0.000393700787401575),
#284,'DISTANCE_ACCURACY_VALUE',
'Maximum model space distance between geometric entities at asserted c
onnectivities');
#281=(
GEOMETRIC_REPRESENTATION_CONTEXT(3)
GLOBAL_UNCERTAINTY_ASSIGNED_CONTEXT((#279))
GLOBAL_UNIT_ASSIGNED_CONTEXT((#284,#288,#289))
REPRESENTATION_CONTEXT('','3D')
);
#282=(
GEOMETRIC_REPRESENTATION_CONTEXT(3)
GLOBAL_UNCERTAINTY_ASSIGNED_CONTEXT((#280))
GLOBAL_UNIT_ASSIGNED_CONTEXT((#284,#288,#289))
REPRESENTATION_CONTEXT('','3D')
);
#283=DIMENSIONAL_EXPONENTS(1.,0.,0.,0.,0.,0.,0.);
#284=(
CONVERSION_BASED_UNIT('inch',#287)
LENGTH_UNIT()
NAMED_UNIT(#283)
);
#285=(
LENGTH_UNIT()
NAMED_UNIT(*)
SI_UNIT(.MILLI.,.METRE.)
);
#286=(
LENGTH_UNIT()
NAMED_UNIT(*)
SI_UNIT($,.METRE.)
);
#287=LENGTH_MEASURE_WITH_UNIT(LENGTH_MEASURE(25.4),#285);
#288=(
NAMED_UNIT(*)
PLANE_ANGLE_UNIT()
SI_UNIT($,.RADIAN.)
);
#289=(
NAMED_UNIT(*)
SI_UNIT($,.STERADIAN.)
SOLID_ANGLE_UNIT()
);
#290=SHAPE_DEFINITION_REPRESENTATION(#291,#292);
#291=PRODUCT_DEFINITION_SHAPE('',$,#294);
#292=SHAPE_REPRESENTATION('',(#162),#281);
#293=PRODUCT_DEFINITION_CONTEXT('part definition',#298,'design');
#294=PRODUCT_DEFINITION('1310-.080-1-BR','1310-.080-1-BR v3',#295,#293);
#295=PRODUCT_DEFINITION_FORMATION('',$,#300);
#296=PRODUCT_RELATED_PRODUCT_CATEGORY('1310-.080-1-BR v3',
'1310-.080-1-BR v3',(#300));
#297=APPLICATION_PROTOCOL_DEFINITION('international standard',
'automotive_design',2009,#298);
#298=APPLICATION_CONTEXT(
'Core Data for Automotive Mechanical Design Process');
#299=PRODUCT_CONTEXT('part definition',#298,'mechanical');
#300=PRODUCT('1310-.080-1-BR','1310-.080-1-BR v3',$,(#299));
#301=PRESENTATION_STYLE_ASSIGNMENT((#302));
#302=SURFACE_STYLE_USAGE(.BOTH.,#303);
#303=SURFACE_SIDE_STYLE('',(#304));
#304=SURFACE_STYLE_FILL_AREA(#305);
#305=FILL_AREA_STYLE('Steel - Satin',(#306));
#306=FILL_AREA_STYLE_COLOUR('Steel - Satin',#307);
#307=COLOUR_RGB('Steel - Satin',0.627450980392157,0.627450980392157,0.627450980392157);
ENDSEC;
END-ISO-10303-21;
