ISO-10303-21;
HEADER;
/* Generated by software containing ST-Developer
 * from STEP Tools, Inc. (www.steptools.com) 
 */

FILE_DESCRIPTION(
/* description */ (''),
/* implementation_level */ '2;1');

FILE_NAME(
/* name */ 'ER40-TA20-100.step',
/* time_stamp */ '2025-12-09T16:57:20-06:00',
/* author */ (''),
/* organization */ (''),
/* preprocessor_version */ 'ST-DEVELOPER v20.1',
/* originating_system */ 'Autodesk Translation Framework v14.21.0.0',
/* authorisation */ '');

FILE_SCHEMA (('AUTOMOTIVE_DESIGN { 1 0 10303 214 3 1 1 }'));
ENDSEC;

DATA;
#10=MECHANICAL_DESIGN_GEOMETRIC_PRESENTATION_REPRESENTATION('',(#26,#27,
#28,#29,#30,#31),#311);
#11=SHAPE_REPRESENTATION_RELATIONSHIP('SRR','None',#321,#12);
#12=ADVANCED_BREP_SHAPE_REPRESENTATION('',(#13),#310);
#13=MANIFOLD_SOLID_BREP('Body1',#169);
#14=FACE_BOUND('',#51,.T.);
#15=FACE_BOUND('',#54,.T.);
#16=FACE_BOUND('',#58,.T.);
#17=PLANE('',#189);
#18=PLANE('',#190);
#19=PLANE('',#196);
#20=PLANE('',#200);
#21=PLANE('',#206);
#22=CYLINDRICAL_SURFACE('',#187,0.393700787401575);
#23=CYLINDRICAL_SURFACE('',#194,0.78740157480315);
#24=CYLINDRICAL_SURFACE('',#198,0.708661417322835);
#25=CYLINDRICAL_SURFACE('',#202,0.78740157480315);
#26=STYLED_ITEM('',(#332),#158);
#27=STYLED_ITEM('',(#332),#161);
#28=STYLED_ITEM('',(#332),#162);
#29=STYLED_ITEM('',(#332),#166);
#30=STYLED_ITEM('',(#332),#167);
#31=STYLED_ITEM('',(#331),#13);
#32=FACE_OUTER_BOUND('',#44,.T.);
#33=FACE_OUTER_BOUND('',#45,.T.);
#34=FACE_OUTER_BOUND('',#46,.T.);
#35=FACE_OUTER_BOUND('',#47,.T.);
#36=FACE_OUTER_BOUND('',#48,.T.);
#37=FACE_OUTER_BOUND('',#49,.T.);
#38=FACE_OUTER_BOUND('',#50,.T.);
#39=FACE_OUTER_BOUND('',#52,.T.);
#40=FACE_OUTER_BOUND('',#53,.T.);
#41=FACE_OUTER_BOUND('',#55,.T.);
#42=FACE_OUTER_BOUND('',#56,.T.);
#43=FACE_OUTER_BOUND('',#57,.T.);
#44=EDGE_LOOP('',(#116,#117,#118,#119,#120));
#45=EDGE_LOOP('',(#121,#122,#123,#124,#125));
#46=EDGE_LOOP('',(#126));
#47=EDGE_LOOP('',(#127));
#48=EDGE_LOOP('',(#128,#129,#130,#131));
#49=EDGE_LOOP('',(#132,#133,#134,#135));
#50=EDGE_LOOP('',(#136));
#51=EDGE_LOOP('',(#137));
#52=EDGE_LOOP('',(#138,#139,#140,#141));
#53=EDGE_LOOP('',(#142));
#54=EDGE_LOOP('',(#143));
#55=EDGE_LOOP('',(#144,#145,#146,#147));
#56=EDGE_LOOP('',(#148,#149,#150,#151));
#57=EDGE_LOOP('',(#152));
#58=EDGE_LOOP('',(#153));
#59=LINE('',#269,#66);
#60=LINE('',#275,#67);
#61=LINE('',#284,#68);
#62=LINE('',#288,#69);
#63=LINE('',#295,#70);
#64=LINE('',#302,#71);
#65=LINE('',#306,#72);
#66=VECTOR('',#213,0.383700787401575);
#67=VECTOR('',#220,0.393700787401575);
#68=VECTOR('',#233,0.700968961461179);
#69=VECTOR('',#238,0.787401574803149);
#70=VECTOR('',#247,0.708661417322835);
#71=VECTOR('',#256,0.78740157480315);
#72=VECTOR('',#261,0.715521466289041);
#73=CIRCLE('',#184,0.373700787401575);
#74=CIRCLE('',#185,0.393700787401575);
#75=CIRCLE('',#186,0.393700787401575);
#76=CIRCLE('',#188,0.393700787401575);
#77=CIRCLE('',#191,0.614536348119208);
#78=CIRCLE('',#193,0.78740157480315);
#79=CIRCLE('',#195,0.78740157480315);
#80=CIRCLE('',#197,0.708661417322835);
#81=CIRCLE('',#199,0.708661417322835);
#82=CIRCLE('',#201,0.78740157480315);
#83=CIRCLE('',#203,0.78740157480315);
#84=CIRCLE('',#205,0.643641357774933);
#85=VERTEX_POINT('',#266);
#86=VERTEX_POINT('',#268);
#87=VERTEX_POINT('',#270);
#88=VERTEX_POINT('',#274);
#89=VERTEX_POINT('',#279);
#90=VERTEX_POINT('',#282);
#91=VERTEX_POINT('',#286);
#92=VERTEX_POINT('',#290);
#93=VERTEX_POINT('',#293);
#94=VERTEX_POINT('',#297);
#95=VERTEX_POINT('',#300);
#96=VERTEX_POINT('',#304);
#97=EDGE_CURVE('',#85,#85,#73,.T.);
#98=EDGE_CURVE('',#85,#86,#59,.T.);
#99=EDGE_CURVE('',#86,#87,#74,.T.);
#100=EDGE_CURVE('',#87,#86,#75,.T.);
#101=EDGE_CURVE('',#87,#88,#60,.T.);
#102=EDGE_CURVE('',#88,#88,#76,.T.);
#103=EDGE_CURVE('',#89,#89,#77,.T.);
#104=EDGE_CURVE('',#90,#90,#78,.T.);
#105=EDGE_CURVE('',#90,#89,#61,.T.);
#106=EDGE_CURVE('',#91,#91,#79,.T.);
#107=EDGE_CURVE('',#91,#90,#62,.T.);
#108=EDGE_CURVE('',#92,#92,#80,.T.);
#109=EDGE_CURVE('',#93,#93,#81,.T.);
#110=EDGE_CURVE('',#93,#92,#63,.T.);
#111=EDGE_CURVE('',#94,#94,#82,.T.);
#112=EDGE_CURVE('',#95,#95,#83,.T.);
#113=EDGE_CURVE('',#95,#94,#64,.T.);
#114=EDGE_CURVE('',#96,#96,#84,.T.);
#115=EDGE_CURVE('',#96,#95,#65,.T.);
#116=ORIENTED_EDGE('',*,*,#97,.T.);
#117=ORIENTED_EDGE('',*,*,#98,.T.);
#118=ORIENTED_EDGE('',*,*,#99,.T.);
#119=ORIENTED_EDGE('',*,*,#100,.T.);
#120=ORIENTED_EDGE('',*,*,#98,.F.);
#121=ORIENTED_EDGE('',*,*,#99,.F.);
#122=ORIENTED_EDGE('',*,*,#100,.F.);
#123=ORIENTED_EDGE('',*,*,#101,.T.);
#124=ORIENTED_EDGE('',*,*,#102,.T.);
#125=ORIENTED_EDGE('',*,*,#101,.F.);
#126=ORIENTED_EDGE('',*,*,#97,.F.);
#127=ORIENTED_EDGE('',*,*,#103,.F.);
#128=ORIENTED_EDGE('',*,*,#104,.F.);
#129=ORIENTED_EDGE('',*,*,#105,.T.);
#130=ORIENTED_EDGE('',*,*,#103,.T.);
#131=ORIENTED_EDGE('',*,*,#105,.F.);
#132=ORIENTED_EDGE('',*,*,#106,.F.);
#133=ORIENTED_EDGE('',*,*,#107,.T.);
#134=ORIENTED_EDGE('',*,*,#104,.T.);
#135=ORIENTED_EDGE('',*,*,#107,.F.);
#136=ORIENTED_EDGE('',*,*,#106,.T.);
#137=ORIENTED_EDGE('',*,*,#108,.F.);
#138=ORIENTED_EDGE('',*,*,#109,.F.);
#139=ORIENTED_EDGE('',*,*,#110,.T.);
#140=ORIENTED_EDGE('',*,*,#108,.T.);
#141=ORIENTED_EDGE('',*,*,#110,.F.);
#142=ORIENTED_EDGE('',*,*,#111,.F.);
#143=ORIENTED_EDGE('',*,*,#109,.T.);
#144=ORIENTED_EDGE('',*,*,#112,.F.);
#145=ORIENTED_EDGE('',*,*,#113,.T.);
#146=ORIENTED_EDGE('',*,*,#111,.T.);
#147=ORIENTED_EDGE('',*,*,#113,.F.);
#148=ORIENTED_EDGE('',*,*,#114,.F.);
#149=ORIENTED_EDGE('',*,*,#115,.T.);
#150=ORIENTED_EDGE('',*,*,#112,.T.);
#151=ORIENTED_EDGE('',*,*,#115,.F.);
#152=ORIENTED_EDGE('',*,*,#114,.T.);
#153=ORIENTED_EDGE('',*,*,#102,.F.);
#154=CONICAL_SURFACE('',#183,0.383700787401575,0.785398163397442);
#155=CONICAL_SURFACE('',#192,0.700968961461179,0.139626340159547);
#156=CONICAL_SURFACE('',#204,0.715521466289041,0.523598775598298);
#157=ADVANCED_FACE('',(#32),#154,.T.);
#158=ADVANCED_FACE('',(#33),#22,.T.);
#159=ADVANCED_FACE('',(#34),#17,.T.);
#160=ADVANCED_FACE('',(#35),#18,.T.);
#161=ADVANCED_FACE('',(#36),#155,.T.);
#162=ADVANCED_FACE('',(#37),#23,.T.);
#163=ADVANCED_FACE('',(#38,#14),#19,.T.);
#164=ADVANCED_FACE('',(#39),#24,.T.);
#165=ADVANCED_FACE('',(#40,#15),#20,.T.);
#166=ADVANCED_FACE('',(#41),#25,.T.);
#167=ADVANCED_FACE('',(#42),#156,.T.);
#168=ADVANCED_FACE('',(#43,#16),#21,.T.);
#169=CLOSED_SHELL('',(#157,#158,#159,#160,#161,#162,#163,#164,#165,#166,
#167,#168));
#170=DERIVED_UNIT_ELEMENT(#172,1.);
#171=DERIVED_UNIT_ELEMENT(#315,-3.);
#172=(
MASS_UNIT()
NAMED_UNIT(*)
SI_UNIT(.KILO.,.GRAM.)
);
#173=DERIVED_UNIT((#170,#171));
#174=MEASURE_REPRESENTATION_ITEM('density measure',
POSITIVE_RATIO_MEASURE(7850.),#173);
#175=PROPERTY_DEFINITION_REPRESENTATION(#180,#177);
#176=PROPERTY_DEFINITION_REPRESENTATION(#181,#178);
#177=REPRESENTATION('material name',(#179),#310);
#178=REPRESENTATION('density',(#174),#310);
#179=DESCRIPTIVE_REPRESENTATION_ITEM('Steel','Steel');
#180=PROPERTY_DEFINITION('material property','material name',#323);
#181=PROPERTY_DEFINITION('material property','density of part',#323);
#182=AXIS2_PLACEMENT_3D('',#264,#207,#208);
#183=AXIS2_PLACEMENT_3D('',#265,#209,#210);
#184=AXIS2_PLACEMENT_3D('',#267,#211,#212);
#185=AXIS2_PLACEMENT_3D('',#271,#214,#215);
#186=AXIS2_PLACEMENT_3D('',#272,#216,#217);
#187=AXIS2_PLACEMENT_3D('',#273,#218,#219);
#188=AXIS2_PLACEMENT_3D('',#276,#221,#222);
#189=AXIS2_PLACEMENT_3D('',#277,#223,#224);
#190=AXIS2_PLACEMENT_3D('',#278,#225,#226);
#191=AXIS2_PLACEMENT_3D('',#280,#227,#228);
#192=AXIS2_PLACEMENT_3D('',#281,#229,#230);
#193=AXIS2_PLACEMENT_3D('',#283,#231,#232);
#194=AXIS2_PLACEMENT_3D('',#285,#234,#235);
#195=AXIS2_PLACEMENT_3D('',#287,#236,#237);
#196=AXIS2_PLACEMENT_3D('',#289,#239,#240);
#197=AXIS2_PLACEMENT_3D('',#291,#241,#242);
#198=AXIS2_PLACEMENT_3D('',#292,#243,#244);
#199=AXIS2_PLACEMENT_3D('',#294,#245,#246);
#200=AXIS2_PLACEMENT_3D('',#296,#248,#249);
#201=AXIS2_PLACEMENT_3D('',#298,#250,#251);
#202=AXIS2_PLACEMENT_3D('',#299,#252,#253);
#203=AXIS2_PLACEMENT_3D('',#301,#254,#255);
#204=AXIS2_PLACEMENT_3D('',#303,#257,#258);
#205=AXIS2_PLACEMENT_3D('',#305,#259,#260);
#206=AXIS2_PLACEMENT_3D('',#307,#262,#263);
#207=DIRECTION('axis',(0.,0.,1.));
#208=DIRECTION('refdir',(1.,0.,0.));
#209=DIRECTION('center_axis',(-1.,0.,0.));
#210=DIRECTION('ref_axis',(0.,-1.,0.));
#211=DIRECTION('center_axis',(-1.,0.,0.));
#212=DIRECTION('ref_axis',(0.,-1.,0.));
#213=DIRECTION('',(-0.707106781186552,0.707106781186543,8.65956056235488E-17));
#214=DIRECTION('center_axis',(1.,0.,0.));
#215=DIRECTION('ref_axis',(0.,-1.,0.));
#216=DIRECTION('center_axis',(1.,0.,0.));
#217=DIRECTION('ref_axis',(0.,-1.,0.));
#218=DIRECTION('center_axis',(1.,0.,0.));
#219=DIRECTION('ref_axis',(0.,1.,0.));
#220=DIRECTION('',(-1.,0.,0.));
#221=DIRECTION('center_axis',(1.,0.,0.));
#222=DIRECTION('ref_axis',(0.,0.,-1.));
#223=DIRECTION('center_axis',(1.,0.,0.));
#224=DIRECTION('ref_axis',(0.,0.,-1.));
#225=DIRECTION('center_axis',(-1.,0.,0.));
#226=DIRECTION('ref_axis',(0.,0.,1.));
#227=DIRECTION('center_axis',(1.,0.,0.));
#228=DIRECTION('ref_axis',(0.,0.,-1.));
#229=DIRECTION('center_axis',(1.,0.,0.));
#230=DIRECTION('ref_axis',(0.,1.,0.));
#231=DIRECTION('center_axis',(1.,0.,0.));
#232=DIRECTION('ref_axis',(0.,0.,-1.));
#233=DIRECTION('',(-0.99026806874157,0.139173100960066,1.70437892618156E-17));
#234=DIRECTION('center_axis',(1.,0.,0.));
#235=DIRECTION('ref_axis',(0.,1.,0.));
#236=DIRECTION('center_axis',(1.,0.,0.));
#237=DIRECTION('ref_axis',(0.,0.,-1.));
#238=DIRECTION('',(-1.,0.,0.));
#239=DIRECTION('center_axis',(1.,0.,0.));
#240=DIRECTION('ref_axis',(0.,0.,-1.));
#241=DIRECTION('center_axis',(1.,0.,0.));
#242=DIRECTION('ref_axis',(0.,0.,-1.));
#243=DIRECTION('center_axis',(1.,0.,0.));
#244=DIRECTION('ref_axis',(0.,1.,0.));
#245=DIRECTION('center_axis',(1.,0.,0.));
#246=DIRECTION('ref_axis',(0.,0.,-1.));
#247=DIRECTION('',(-1.,0.,0.));
#248=DIRECTION('center_axis',(-1.,0.,0.));
#249=DIRECTION('ref_axis',(0.,0.,1.));
#250=DIRECTION('center_axis',(1.,0.,0.));
#251=DIRECTION('ref_axis',(0.,0.,-1.));
#252=DIRECTION('center_axis',(1.,0.,0.));
#253=DIRECTION('ref_axis',(0.,1.,0.));
#254=DIRECTION('center_axis',(1.,0.,0.));
#255=DIRECTION('ref_axis',(0.,0.,-1.));
#256=DIRECTION('',(-1.,0.,0.));
#257=DIRECTION('center_axis',(-1.,0.,0.));
#258=DIRECTION('ref_axis',(0.,1.,0.));
#259=DIRECTION('center_axis',(1.,0.,0.));
#260=DIRECTION('ref_axis',(0.,0.,-1.));
#261=DIRECTION('',(-0.866025403784439,-0.499999999999999,-6.12323399573676E-17));
#262=DIRECTION('center_axis',(1.,0.,0.));
#263=DIRECTION('ref_axis',(0.,0.,-1.));
#264=CARTESIAN_POINT('',(0.,0.,0.));
#265=CARTESIAN_POINT('Origin',(3.92700787401575,0.,0.));
#266=CARTESIAN_POINT('',(3.93700787401575,0.373700787401575,-4.57651473130184E-17));
#267=CARTESIAN_POINT('Origin',(3.93700787401575,0.,0.));
#268=CARTESIAN_POINT('',(3.91700787401575,0.393700787401575,4.82144409113131E-17));
#269=CARTESIAN_POINT('',(3.92700787401575,0.383700787401575,4.69897941121658E-17));
#270=CARTESIAN_POINT('',(3.91700787401575,-0.393700787401575,-4.82144409113131E-17));
#271=CARTESIAN_POINT('Origin',(3.91700787401575,0.,0.));
#272=CARTESIAN_POINT('Origin',(3.91700787401575,0.,0.));
#273=CARTESIAN_POINT('Origin',(1.96850393700787,0.,0.));
#274=CARTESIAN_POINT('',(0.,-0.393700787401575,-4.82144409113131E-17));
#275=CARTESIAN_POINT('',(1.96850393700787,-0.393700787401575,-4.82144409113131E-17));
#276=CARTESIAN_POINT('Origin',(0.,0.,0.));
#277=CARTESIAN_POINT('Origin',(3.93700787401575,0.,0.));
#278=CARTESIAN_POINT('Origin',(-1.815,0.614536348119208,0.));
#279=CARTESIAN_POINT('',(-1.815,-0.614536348119208,-7.52589971683891E-17));
#280=CARTESIAN_POINT('Origin',(-1.815,0.,0.));
#281=CARTESIAN_POINT('Origin',(-1.2,0.,0.));
#282=CARTESIAN_POINT('',(-0.585,-0.78740157480315,-9.64288818226262E-17));
#283=CARTESIAN_POINT('Origin',(-0.585,0.,0.));
#284=CARTESIAN_POINT('',(-1.2,-0.700968961461179,-8.58439394955077E-17));
#285=CARTESIAN_POINT('Origin',(-0.512,0.,0.));
#286=CARTESIAN_POINT('',(-0.439,-0.78740157480315,-9.64288818226262E-17));
#287=CARTESIAN_POINT('Origin',(-0.439,0.,0.));
#288=CARTESIAN_POINT('',(-0.512,-0.78740157480315,-9.64288818226262E-17));
#289=CARTESIAN_POINT('Origin',(-0.439,0.708661417322835,0.));
#290=CARTESIAN_POINT('',(-0.439,-0.708661417322835,-8.67859936403636E-17));
#291=CARTESIAN_POINT('Origin',(-0.439,0.,0.));
#292=CARTESIAN_POINT('Origin',(-0.3595,0.,0.));
#293=CARTESIAN_POINT('',(-0.28,-0.708661417322835,-8.67859936403636E-17));
#294=CARTESIAN_POINT('Origin',(-0.28,0.,0.));
#295=CARTESIAN_POINT('',(-0.3595,-0.708661417322835,-8.67859936403636E-17));
#296=CARTESIAN_POINT('Origin',(-0.28,0.78740157480315,0.));
#297=CARTESIAN_POINT('',(-0.28,-0.78740157480315,-9.64288818226262E-17));
#298=CARTESIAN_POINT('Origin',(-0.28,0.,0.));
#299=CARTESIAN_POINT('Origin',(-0.2645,0.,0.));
#300=CARTESIAN_POINT('',(-0.249,-0.78740157480315,-9.64288818226262E-17));
#301=CARTESIAN_POINT('Origin',(-0.249,0.,0.));
#302=CARTESIAN_POINT('',(-0.2645,-0.78740157480315,-9.64288818226262E-17));
#303=CARTESIAN_POINT('Origin',(-0.1245,0.,0.));
#304=CARTESIAN_POINT('',(-6.55643518479423E-17,-0.643641357774933,-7.88233328597928E-17));
#305=CARTESIAN_POINT('Origin',(0.,0.,0.));
#306=CARTESIAN_POINT('',(-0.1245,-0.715521466289041,-8.76261073412095E-17));
#307=CARTESIAN_POINT('Origin',(0.,0.393700787401575,0.));
#308=UNCERTAINTY_MEASURE_WITH_UNIT(LENGTH_MEASURE(0.000393700787401575),
#313,'DISTANCE_ACCURACY_VALUE',
'Maximum model space distance between geometric entities at asserted c
onnectivities');
#309=UNCERTAINTY_MEASURE_WITH_UNIT(LENGTH_MEASURE(0.000393700787401575),
#313,'DISTANCE_ACCURACY_VALUE',
'Maximum model space distance between geometric entities at asserted c
onnectivities');
#310=(
GEOMETRIC_REPRESENTATION_CONTEXT(3)
GLOBAL_UNCERTAINTY_ASSIGNED_CONTEXT((#308))
GLOBAL_UNIT_ASSIGNED_CONTEXT((#313,#317,#318))
REPRESENTATION_CONTEXT('','3D')
);
#311=(
GEOMETRIC_REPRESENTATION_CONTEXT(3)
GLOBAL_UNCERTAINTY_ASSIGNED_CONTEXT((#309))
GLOBAL_UNIT_ASSIGNED_CONTEXT((#313,#317,#318))
REPRESENTATION_CONTEXT('','3D')
);
#312=DIMENSIONAL_EXPONENTS(1.,0.,0.,0.,0.,0.,0.);
#313=(
CONVERSION_BASED_UNIT('inch',#316)
LENGTH_UNIT()
NAMED_UNIT(#312)
);
#314=(
LENGTH_UNIT()
NAMED_UNIT(*)
SI_UNIT(.MILLI.,.METRE.)
);
#315=(
LENGTH_UNIT()
NAMED_UNIT(*)
SI_UNIT($,.METRE.)
);
#316=LENGTH_MEASURE_WITH_UNIT(LENGTH_MEASURE(25.4),#314);
#317=(
NAMED_UNIT(*)
PLANE_ANGLE_UNIT()
SI_UNIT($,.RADIAN.)
);
#318=(
NAMED_UNIT(*)
SI_UNIT($,.STERADIAN.)
SOLID_ANGLE_UNIT()
);
#319=SHAPE_DEFINITION_REPRESENTATION(#320,#321);
#320=PRODUCT_DEFINITION_SHAPE('',$,#323);
#321=SHAPE_REPRESENTATION('',(#182),#310);
#322=PRODUCT_DEFINITION_CONTEXT('part definition',#327,'design');
#323=PRODUCT_DEFINITION('ER40-TA20-100','ER40-TA20-100 v1',#324,#322);
#324=PRODUCT_DEFINITION_FORMATION('',$,#329);
#325=PRODUCT_RELATED_PRODUCT_CATEGORY('ER40-TA20-100 v1',
'ER40-TA20-100 v1',(#329));
#326=APPLICATION_PROTOCOL_DEFINITION('international standard',
'automotive_design',2009,#327);
#327=APPLICATION_CONTEXT(
'Core Data for Automotive Mechanical Design Process');
#328=PRODUCT_CONTEXT('part definition',#327,'mechanical');
#329=PRODUCT('ER40-TA20-100','ER40-TA20-100 v1',$,(#328));
#330=PRESENTATION_STYLE_ASSIGNMENT((#333));
#331=PRESENTATION_STYLE_ASSIGNMENT((#334));
#332=PRESENTATION_STYLE_ASSIGNMENT((#335));
#333=SURFACE_STYLE_USAGE(.BOTH.,#336);
#334=SURFACE_STYLE_USAGE(.BOTH.,#337);
#335=SURFACE_STYLE_USAGE(.BOTH.,#338);
#336=SURFACE_SIDE_STYLE('',(#339));
#337=SURFACE_SIDE_STYLE('',(#340));
#338=SURFACE_SIDE_STYLE('',(#341));
#339=SURFACE_STYLE_FILL_AREA(#342);
#340=SURFACE_STYLE_FILL_AREA(#343);
#341=SURFACE_STYLE_FILL_AREA(#344);
#342=FILL_AREA_STYLE('Steel - Satin',(#345));
#343=FILL_AREA_STYLE('Opaque(44,44,44)',(#346));
#344=FILL_AREA_STYLE('Opaque(255,255,255)',(#347));
#345=FILL_AREA_STYLE_COLOUR('Steel - Satin',#348);
#346=FILL_AREA_STYLE_COLOUR('Opaque(44,44,44)',#349);
#347=FILL_AREA_STYLE_COLOUR('Opaque(255,255,255)',#350);
#348=COLOUR_RGB('Steel - Satin',0.627450980392157,0.627450980392157,0.627450980392157);
#349=COLOUR_RGB('Opaque(44,44,44)',0.172549019607843,0.172549019607843,
0.172549019607843);
#350=COLOUR_RGB('Opaque(255,255,255)',1.,1.,1.);
ENDSEC;
END-ISO-10303-21;
