0
SECTION
2
HEADER
9
$INSUNITS
70
1
9
$ACADVER
1
AC1014
9
$HANDSEED
5
FFFF
0
ENDSEC
0
SECTION
2
TABLES
0
TABLE
2
VPORT
5
8
100
AcDbSymbolTable
0
ENDTAB
0
TABLE
2
LTYPE
5
5
100
AcDbSymbolTable
0
LTYPE
5
14
100
AcDbSymbolTableRecord
100
AcDbLinetypeTableRecord
2
BYBLOCK
70
0
0
LTYPE
5
15
100
AcDbSymbolTableRecord
100
AcDbLinetypeTableRecord
2
BYLAYER
70
0
0
LTYPE
5
16
100
AcDbSymbolTableRecord
100
AcDbLinetypeTableRecord
2
DASHED
70
0
3
Dashed __ __ __ __ __ __ __ __ __ __ __ __ __ _
72
65
73
2
40
0.75
49
0.5
74
0
49
-0.25
74
0
0
ENDTAB
0
TABLE
2
LAYER
5
2
100
AcDbSymbolTable
70
2
0
LAYER
5
50
100
AcDbSymbolTableRecord
100
AcDbLayerTableRecord
2
0
70
0
62
7
6
CONTINUOUS
0
ENDTAB
0
TABLE
2
STYLE
5
3
100
AcDbSymbolTable
70
1
0
STYLE
5
11
100
AcDbSymbolTableRecord
100
AcDbTextStyleTableRecord
2
STANDARD
70
0
0
ENDTAB
0
TABLE
2
VIEW
5
6
100
AcDbSymbolTable
70
0
0
ENDTAB
0
TABLE
2
UCS
5
7
100
AcDbSymbolTable
70
0
0
ENDTAB
0
TABLE
2
APPID
5
9
100
AcDbSymbolTable
70
2
0
APPID
5
12
100
AcDbSymbolTableRecord
100
AcDbRegAppTableRecord
2
ACAD
70
0
0
ENDTAB
0
TABLE
2
DIMSTYLE
5
A
100
AcDbSymbolTable
70
1
0
ENDTAB
0
TABLE
2
BLOCK_RECORD
5
1
100
AcDbSymbolTable
70
1
0
BLOCK_RECORD
5
1F
100
AcDbSymbolTableRecord
100
AcDbBlockTableRecord
2
*MODEL_SPACE
0
BLOCK_RECORD
5
1B
100
AcDbSymbolTableRecord
100
AcDbBlockTableRecord
2
*PAPER_SPACE
0
ENDTAB
0
ENDSEC
0
SECTION
2
BLOCKS
0
BLOCK
5
20
100
AcDbEntity
100
AcDbBlockBegin
2
*MODEL_SPACE
0
ENDBLK
5
21
100
AcDbEntity
100
AcDbBlockEnd
0
BLOCK
5
1C
100
AcDbEntity
100
AcDbBlockBegin
2
*PAPER_SPACE
0
ENDBLK
5
1D
100
AcDbEntity
100
AcDbBlockEnd
0
ENDSEC
0
SECTION
2
ENTITIES
0
LINE
5
100
100
AcDbEntity
8
0
100
AcDbLine
10
1.6630000000000007
20
1.1935753736948203
30
0
11
1.6630000000000007
21
1.206
31
0
0
LINE
5
101
100
AcDbEntity
8
0
100
AcDbLine
10
1.6630000000000007
20
1.1935753736948203
30
0
11
1.663
21
0.93199999999999994
31
0
0
LINE
5
102
100
AcDbEntity
8
0
100
AcDbLine
10
1.663
20
-0.93199999999999994
30
0
11
1.663
21
-1.1935753736948231
31
0
0
LINE
5
103
100
AcDbEntity
8
0
100
AcDbLine
10
1.6630000000000007
20
-1.206
30
0
11
1.663
21
-1.1935753736948231
31
0
0
LINE
5
104
100
AcDbEntity
8
0
100
AcDbLine
10
2.5
20
-1.206
30
0
11
2.5
21
-1.1935753736948227
31
0
0
SPLINE
5
105
100
AcDbEntity
8
0
100
AcDbSpline
70
0
71
3
72
28
73
24
74
0
42
0.000000001
43
0.0000000001
44
0.0000000001
40
-1.7098491077350368
40
-1.7098491077350368
40
-1.7098491077350368
40
-1.7098491077350368
40
-1.6966311421382532
40
-1.6966311421382532
40
-1.6966311421382532
40
-1.5804528597715279
40
-1.5804528597715279
40
-1.4367759687475077
40
-1.4367759687475077
40
-1.2930979013056032
40
-1.2930979013056032
40
-1.1494198338636987
40
-1.1494198338636987
40
-1.0057417664217942
40
-1.0057417664217942
40
-0.86206369897988977
40
-0.86206369897988977
40
-0.71838680795586962
40
-0.71838680795586962
40
-0.60220852558914895
40
-0.60220852558914895
40
-0.60220852558914895
40
-0.58899055999634797
40
-0.58899055999634797
40
-0.58899055999634797
40
-0.58899055999634797
10
1.9315000000000002
20
-1.206
30
0
10
1.9316332535569705
20
-1.2059834261745062
30
0
10
1.9317665097715326
20
-1.2059668737620217
30
0
10
1.9318997686487129
20
-1.2059503427672129
30
0
10
1.9330710372034359
20
-1.2058050448718129
30
0
10
1.9367377204599896
20
-1.2053440543021672
30
0
10
1.9505863679660032
20
-1.2037510224764174
30
0
10
1.9621272254281539
20
-1.2025016298618774
30
0
10
1.9887408491708258
20
-1.2001518935938726
30
0
10
2.0055948608954268
20
-1.1988982564419206
30
0
10
2.0425458997105013
20
-1.1971269197351129
30
0
10
2.0626446105719287
20
-1.1966352827825191
30
0
10
2.100355389428072
20
-1.1966352827825191
30
0
10
2.1204541002894994
20
-1.1971269197351129
30
0
10
2.1574051391045739
20
-1.1988982564419206
30
0
10
2.1742591508291746
20
-1.2001518935938729
30
0
10
2.2008727745718466
20
-1.2025016298618776
30
0
10
2.2124136320339978
20
-1.2037510224764176
30
0
10
2.2262622795400109
20
-1.2053440543021674
30
0
10
2.2299289627965644
20
-1.2058050448718127
30
0
10
2.2311002313512875
20
-1.2059503427672127
30
0
10
2.2312334902284277
20
-1.2059668737620164
30
0
10
2.23136674644307
20
-1.205983426174511
30
0
10
2.2315
20
-1.2059999999999997
30
0
0
LINE
5
106
100
AcDbEntity
8
0
100
AcDbLine
10
2.75
20
-1.1000000000000001
30
0
11
2.75
21
1.1000000000000001
31
0
0
LINE
5
107
100
AcDbEntity
8
0
100
AcDbLine
10
2.5
20
-1.1000000000000001
30
0
11
2.5
21
-1.1935753736948227
31
0
0
LINE
5
108
100
AcDbEntity
8
0
100
AcDbLine
10
2.5
20
1.19357537369482
30
0
11
2.5
21
1.1000000000000001
31
0
0
LINE
5
109
100
AcDbEntity
8
0
100
AcDbLine
10
2.5
20
1.19357537369482
30
0
11
2.5
21
1.206
31
0
0
LINE
5
110
100
AcDbEntity
8
0
100
AcDbLine
10
-1.9099999999999999
20
0.34010585301462193
30
0
11
-1.9099999999999999
21
-0.34010585301462193
31
0
0
LINE
5
111
100
AcDbEntity
8
0
100
AcDbLine
10
0.040000000000000001
20
0.88400000000000001
30
0
11
0.040000000000000001
21
0.63500000000000001
31
0
0
LINE
5
112
100
AcDbEntity
8
0
100
AcDbLine
10
0.040000000000000001
20
-0.6349999999999999
30
0
11
0.040000000000000001
21
-0.88400000000000001
31
0
0
LINE
5
113
100
AcDbEntity
8
0
100
AcDbLine
10
1.6630000000000007
20
-1.206
30
0
11
1.9315000000000002
21
-1.206
31
0
0
LINE
5
114
100
AcDbEntity
8
0
100
AcDbLine
10
2.2314999999999996
20
-1.2059999999999997
30
0
11
2.5
21
-1.206
31
0
0
LINE
5
115
100
AcDbEntity
8
0
100
AcDbLine
10
2.5
20
-1.1000000000000001
30
0
11
2.75
21
-1.1000000000000001
31
0
0
LINE
5
116
100
AcDbEntity
8
0
100
AcDbLine
10
2.5
20
1.1000000000000001
30
0
11
2.75
21
1.1000000000000001
31
0
0
LINE
5
117
100
AcDbEntity
8
0
100
AcDbLine
10
1.6630000000000007
20
1.206
30
0
11
2.5
21
1.206
31
0
0
LINE
5
118
100
AcDbEntity
8
0
100
AcDbLine
10
0.85449999999999948
20
-0.89950000000000019
30
0
11
1.3195000000000008
21
-0.89950000000000019
31
0
0
LINE
5
119
100
AcDbEntity
8
0
100
AcDbLine
10
0.85449999999999959
20
0.89950000000000019
30
0
11
1.3195000000000008
21
0.89950000000000019
31
0
0
LINE
5
120
100
AcDbEntity
8
0
100
AcDbLine
10
1.3195000000000008
20
-0.89950000000000019
30
0
11
1.3520000000000005
21
-0.93200000000000016
31
0
0
LINE
5
121
100
AcDbEntity
8
0
100
AcDbLine
10
1.3195000000000008
20
0.89950000000000019
30
0
11
1.3520000000000005
21
0.93200000000000016
31
0
0
LINE
5
122
100
AcDbEntity
8
0
100
AcDbLine
10
1.3520000000000005
20
-0.93200000000000016
30
0
11
1.663
21
-0.93199999999999994
31
0
0
LINE
5
123
100
AcDbEntity
8
0
100
AcDbLine
10
1.3520000000000005
20
0.93200000000000016
30
0
11
1.663
21
0.93199999999999994
31
0
0
LINE
5
124
100
AcDbEntity
8
0
100
AcDbLine
10
0.85449999999999959
20
0.89950000000000019
30
0
11
0.84999999999999987
21
0.90399999999999991
31
0
0
LINE
5
125
100
AcDbEntity
8
0
100
AcDbLine
10
0.85449999999999948
20
-0.89950000000000019
30
0
11
0.84999999999999987
21
-0.90399999999999991
31
0
0
ARC
5
126
100
AcDbEntity
8
0
100
AcDbCircle
10
-1.8899999999999999
20
0.34010585301462193
30
0
40
0.02
210
0
220
0
230
1
100
AcDbArc
50
97.972552486762453
51
180
0
ARC
5
127
100
AcDbEntity
8
0
100
AcDbCircle
10
-1.8899999999999999
20
-0.34010585301462193
30
0
40
0.019999999999999893
210
0
220
0
230
1
100
AcDbArc
50
180
51
262.02744751323752
0
LINE
5
128
100
AcDbEntity
8
0
100
AcDbLine
10
-1.8927739739521601
20
-0.35991254553287794
30
0
11
0
21
-0.62499999999999989
31
0
0
LINE
5
129
100
AcDbEntity
8
0
100
AcDbLine
10
-1.8927739739521601
20
0.35991254553287794
30
0
11
0
21
0.62499999999999989
31
0
0
LINE
5
130
100
AcDbEntity
8
0
100
AcDbLine
10
0.030000000000000016
20
0.62499999999999989
30
0
11
0
21
0.62499999999999989
31
0
0
LINE
5
131
100
AcDbEntity
8
0
100
AcDbLine
10
0.030000000000000016
20
-0.62499999999999989
30
0
11
0
21
-0.62499999999999989
31
0
0
LINE
5
132
100
AcDbEntity
8
0
100
AcDbLine
10
0.040000000000000001
20
0.88400000000000001
30
0
11
0.05999999999999988
21
0.90399999999999991
31
0
0
LINE
5
133
100
AcDbEntity
8
0
100
AcDbLine
10
0.040000000000000001
20
-0.88400000000000001
30
0
11
0.05999999999999988
21
-0.90399999999999991
31
0
0
LINE
5
134
100
AcDbEntity
8
0
100
AcDbLine
10
0.35000000000000009
20
0.90399999999999991
30
0
11
0.05999999999999988
21
0.90399999999999991
31
0
0
LINE
5
135
100
AcDbEntity
8
0
100
AcDbLine
10
0.35000000000000009
20
-0.90399999999999991
30
0
11
0.05999999999999988
21
-0.90399999999999991
31
0
0
LINE
5
136
100
AcDbEntity
8
0
100
AcDbLine
10
0.45250000000000001
20
0.745
30
0
11
0.35000000000000009
21
0.90399999999999991
31
0
0
LINE
5
137
100
AcDbEntity
8
0
100
AcDbLine
10
0.45250000000000001
20
-0.745
30
0
11
0.35000000000000009
21
-0.90399999999999991
31
0
0
LINE
5
138
100
AcDbEntity
8
0
100
AcDbLine
10
0.58750000000000002
20
0.745
30
0
11
0.45250000000000001
21
0.745
31
0
0
LINE
5
139
100
AcDbEntity
8
0
100
AcDbLine
10
0.58750000000000002
20
-0.745
30
0
11
0.45250000000000001
21
-0.745
31
0
0
LINE
5
140
100
AcDbEntity
8
0
100
AcDbLine
10
0.58750000000000002
20
0.745
30
0
11
0.68999999999999995
21
0.90399999999999991
31
0
0
LINE
5
141
100
AcDbEntity
8
0
100
AcDbLine
10
0.58750000000000002
20
-0.745
30
0
11
0.68999999999999995
21
-0.90399999999999991
31
0
0
LINE
5
142
100
AcDbEntity
8
0
100
AcDbLine
10
0.84999999999999987
20
0.90399999999999991
30
0
11
0.68999999999999995
21
0.90399999999999991
31
0
0
LINE
5
143
100
AcDbEntity
8
0
100
AcDbLine
10
0.84999999999999987
20
-0.90399999999999991
30
0
11
0.68999999999999995
21
-0.90399999999999991
31
0
0
ARC
5
144
100
AcDbEntity
8
0
100
AcDbCircle
10
0.029999999999999999
20
0.6349999999999999
30
0
40
0.010000000000000035
210
-0
220
0
230
1
100
AcDbArc
50
-89.999999999999901
51
0
0
ARC
5
145
100
AcDbEntity
8
0
100
AcDbCircle
10
0.029999999999999999
20
-0.6349999999999999
30
0
40
0.010000000000000002
210
0
220
-0
230
1
100
AcDbArc
50
0
51
89.999999999999901
0
ENDSEC
0
SECTION
2
OBJECTS
0
DICTIONARY
5
C
100
AcDbDictionary
3
ACAD_GROUP
350
D
3
ACAD_MLINESTYLE
350
17
0
DICTIONARY
5
D
100
AcDbDictionary
0
DICTIONARY
5
1A
330
C
100
AcDbDictionary
0
DICTIONARY
5
17
100
AcDbDictionary
0
ENDSEC
0
EOF
