  0
SECTION
  2
HEADER
  9
$ACADVER
  1
AC1015
  9
$ACADMAINTVER
 70
     6
  9
$DWGCODEPAGE
  3
ANSI_1252
  9
$INSBASE
 10
0.0
 20
0.0
 30
0.0
  9
$EXTMIN
 10
-2.5787401575
 20
-1.2413507388
 30
0.0
  9
$EXTMAX
 10
2.9999580877
 20
1.2413507381
 30
0.0
  9
$LIMMIN
 10
0.0
 20
0.0
  9
$LIMMAX
 10
12.0
 20
9.0
  9
$ORTHOMODE
 70
     0
  9
$REGENMODE
 70
     1
  9
$FILLMODE
 70
     1
  9
$QTEXTMODE
 70
     0
  9
$MIRRTEXT
 70
     1
  9
$LTSCALE
 40
1.0
  9
$ATTMODE
 70
     1
  9
$TEXTSIZE
 40
0.125
  9
$TRACEWID
 40
0.05
  9
$TEXTSTYLE
  7
Standard
  9
$CLAYER
  8
0
  9
$CELTYPE
  6
ByLayer
  9
$CECOLOR
 62
   256
  9
$CELTSCALE
 40
1.0
  9
$DISPSILH
 70
     0
  9
$DIMSCALE
 40
1.0
  9
$DIMASZ
 40
0.13
  9
$DIMEXO
 40
0.05
  9
$DIMDLI
 40
0.38
  9
$DIMRND
 40
0.0
  9
$DIMDLE
 40
0.0
  9
$DIMEXE
 40
0.125
  9
$DIMTP
 40
0.0
  9
$DIMTM
 40
0.0
  9
$DIMTXT
 40
0.125
  9
$DIMCEN
 40
0.09
  9
$DIMTSZ
 40
0.0
  9
$DIMTOL
 70
     0
  9
$DIMLIM
 70
     0
  9
$DIMTIH
 70
     1
  9
$DIMTOH
 70
     1
  9
$DIMSE1
 70
     0
  9
$DIMSE2
 70
     0
  9
$DIMTAD
 70
     0
  9
$DIMZIN
 70
     0
  9
$DIMBLK
  1

  9
$DIMASO
 70
     1
  9
$DIMSHO
 70
     1
  9
$DIMPOST
  1

  9
$DIMAPOST
  1

  9
$DIMALT
 70
     0
  9
$DIMALTD
 70
     2
  9
$DIMALTF
 40
25.4
  9
$DIMLFAC
 40
1.0
  9
$DIMTOFL
 70
     0
  9
$DIMTVP
 40
0.0
  9
$DIMTIX
 70
     0
  9
$DIMSOXD
 70
     0
  9
$DIMSAH
 70
     0
  9
$DIMBLK1
  1

  9
$DIMBLK2
  1

  9
$DIMSTYLE
  2
Standard
  9
$DIMCLRD
 70
     0
  9
$DIMCLRE
 70
     0
  9
$DIMCLRT
 70
     0
  9
$DIMTFAC
 40
1.0
  9
$DIMGAP
 40
0.06
  9
$DIMJUST
 70
     0
  9
$DIMSD1
 70
     0
  9
$DIMSD2
 70
     0
  9
$DIMTOLJ
 70
     1
  9
$DIMTZIN
 70
     0
  9
$DIMALTZ
 70
     0
  9
$DIMALTTZ
 70
     0
  9
$DIMUPT
 70
     0
  9
$DIMDEC
 70
     2
  9
$DIMTDEC
 70
     2
  9
$DIMALTU
 70
     2
  9
$DIMALTTD
 70
     2
  9
$DIMTXSTY
  7
Standard
  9
$DIMAUNIT
 70
     0
  9
$DIMADEC
 70
     2
  9
$DIMALTRND
 40
0.0
  9
$DIMAZIN
 70
     0
  9
$DIMDSEP
 70
    46
  9
$DIMATFIT
 70
     3
  9
$DIMFRAC
 70
     0
  9
$DIMLDRBLK
  1

  9
$DIMLUNIT
 70
     2
  9
$DIMLWD
 70
    -2
  9
$DIMLWE
 70
    -2
  9
$DIMTMOVE
 70
     0
  9
$LUNITS
 70
     2
  9
$LUPREC
 70
     2
  9
$SKETCHINC
 40
0.1
  9
$FILLETRAD
 40
0.5
  9
$AUNITS
 70
     0
  9
$AUPREC
 70
     2
  9
$MENU
  1
.
  9
$ELEVATION
 40
0.0
  9
$PELEVATION
 40
0.0
  9
$THICKNESS
 40
0.0
  9
$LIMCHECK
 70
     0
  9
$CHAMFERA
 40
0.0
  9
$CHAMFERB
 40
0.0
  9
$CHAMFERC
 40
0.0
  9
$CHAMFERD
 40
0.0
  9
$SKPOLY
 70
     0
  9
$TDCREATE
 40
2458165.4213986
  9
$TDUCREATE
 40
2458165.6713986
  9
$TDUPDATE
 40
2458165.421426308
  9
$TDUUPDATE
 40
2458165.671426308
  9
$TDINDWG
 40
0.0000000116
  9
$TDUSRTIMER
 40
0.0000000116
  9
$USRTIMER
 70
     1
  9
$ANGBASE
 50
0.0
  9
$ANGDIR
 70
     0
  9
$PDMODE
 70
     0
  9
$PDSIZE
 40
-1.0
  9
$PLINEWID
 40
0.0
  9
$SPLFRAME
 70
     0
  9
$SPLINETYPE
 70
     6
  9
$SPLINESEGS
 70
     8
  9
$HANDSEED
  5
18F
  9
$SURFTAB1
 70
     6
  9
$SURFTAB2
 70
     6
  9
$SURFTYPE
 70
     6
  9
$SURFU
 70
     6
  9
$SURFV
 70
     6
  9
$UCSBASE
  2

  9
$UCSNAME
  2

  9
$UCSORG
 10
0.0
 20
0.0
 30
0.0
  9
$UCSXDIR
 10
1.0
 20
0.0
 30
0.0
  9
$UCSYDIR
 10
0.0
 20
1.0
 30
0.0
  9
$UCSORTHOREF
  2

  9
$UCSORTHOVIEW
 70
     0
  9
$UCSORGTOP
 10
0.0
 20
0.0
 30
0.0
  9
$UCSORGBOTTOM
 10
0.0
 20
0.0
 30
0.0
  9
$UCSORGLEFT
 10
0.0
 20
0.0
 30
0.0
  9
$UCSORGRIGHT
 10
0.0
 20
0.0
 30
0.0
  9
$UCSORGFRONT
 10
0.0
 20
0.0
 30
0.0
  9
$UCSORGBACK
 10
0.0
 20
0.0
 30
0.0
  9
$PUCSBASE
  2

  9
$PUCSNAME
  2

  9
$PUCSORG
 10
0.0
 20
0.0
 30
0.0
  9
$PUCSXDIR
 10
1.0
 20
0.0
 30
0.0
  9
$PUCSYDIR
 10
0.0
 20
1.0
 30
0.0
  9
$PUCSORTHOREF
  2

  9
$PUCSORTHOVIEW
 70
     0
  9
$PUCSORGTOP
 10
0.0
 20
0.0
 30
0.0
  9
$PUCSORGBOTTOM
 10
0.0
 20
0.0
 30
0.0
  9
$PUCSORGLEFT
 10
0.0
 20
0.0
 30
0.0
  9
$PUCSORGRIGHT
 10
0.0
 20
0.0
 30
0.0
  9
$PUCSORGFRONT
 10
0.0
 20
0.0
 30
0.0
  9
$PUCSORGBACK
 10
0.0
 20
0.0
 30
0.0
  9
$USERI1
 70
     0
  9
$USERI2
 70
     0
  9
$USERI3
 70
     0
  9
$USERI4
 70
     0
  9
$USERI5
 70
     0
  9
$USERR1
 40
0.0
  9
$USERR2
 40
0.0
  9
$USERR3
 40
0.0
  9
$USERR4
 40
0.0
  9
$USERR5
 40
0.0
  9
$WORLDVIEW
 70
     1
  9
$SHADEDGE
 70
     3
  9
$SHADEDIF
 70
    70
  9
$TILEMODE
 70
     1
  9
$MAXACTVP
 70
    64
  9
$PINSBASE
 10
0.0
 20
0.0
 30
0.0
  9
$PLIMCHECK
 70
     0
  9
$PEXTMIN
 10
1.0000000000E+20
 20
1.0000000000E+20
 30
1.0000000000E+20
  9
$PEXTMAX
 10
-1.0000000000E+20
 20
-1.0000000000E+20
 30
-1.0000000000E+20
  9
$PLIMMIN
 10
0.0
 20
0.0
  9
$PLIMMAX
 10
12.0
 20
9.0
  9
$UNITMODE
 70
     0
  9
$VISRETAIN
 70
     1
  9
$PLINEGEN
 70
     0
  9
$PSLTSCALE
 70
     1
  9
$TREEDEPTH
 70
  3020
  9
$CMLSTYLE
  2
Standard
  9
$CMLJUST
 70
     0
  9
$CMLSCALE
 40
1.0
  9
$PROXYGRAPHICS
 70
     1
  9
$MEASUREMENT
 70
     0
  9
$CELWEIGHT
370
    -1
  9
$ENDCAPS
280
     0
  9
$JOINSTYLE
280
     0
  9
$LWDISPLAY
290
     1
  9
$INSUNITS
 70
     1
  9
$HYPERLINKBASE
  1

  9
$STYLESHEET
  1

  9
$XEDIT
290
     1
  9
$CEPSNTYPE
380
     0
  9
$PSTYLEMODE
290
     1
  9
$FINGERPRINTGUID
  2
{D28875DB-2072-40C7-81BE-4D93D3B8FBBB}
  9
$VERSIONGUID
  2
{FAEB1C32-E019-11D5-929B-00C0DF256EC4}
  9
$EXTNAMES
290
     1
  9
$PSVPSCALE
 40
0.0
  9
$OLESTARTUP
290
     0
  0
ENDSEC
  0
SECTION
  2
CLASSES
  0
CLASS
  1
ACDBDICTIONARYWDFLT
  2
AcDbDictionaryWithDefault
  3
ObjectDBX Classes
 90
        0
280
     0
281
     0
  0
CLASS
  1
VISUALSTYLE
  2
AcDbVisualStyle
  3
ObjectDBX Classes
 90
     4095
280
     0
281
     0
  0
CLASS
  1
MATERIAL
  2
AcDbMaterial
  3
ObjectDBX Classes
 90
     1153
280
     0
281
     0
  0
CLASS
  1
SCALE
  2
AcDbScale
  3
ObjectDBX Classes
 90
     1153
280
     0
281
     0
  0
CLASS
  1
TABLESTYLE
  2
AcDbTableStyle
  3
ObjectDBX Classes
 90
     4095
280
     0
281
     0
  0
CLASS
  1
MLEADERSTYLE
  2
AcDbMLeaderStyle
  3
ACDB_MLEADERSTYLE_CLASS
 90
     4095
280
     0
281
     0
  0
CLASS
  1
SUN
  2
AcDbSun
  3
SCENEOE
 90
     1153
280
     0
281
     0
  0
CLASS
  1
ACDBPLACEHOLDER
  2
AcDbPlaceHolder
  3
ObjectDBX Classes
 90
        0
280
     0
281
     0
  0
CLASS
  1
LAYOUT
  2
AcDbLayout
  3
ObjectDBX Classes
 90
        0
280
     0
281
     0
  0
ENDSEC
  0
SECTION
  2
TABLES
  0
TABLE
  2
VPORT
  5
8
330
0
100
AcDbSymbolTable
 70
     1
  0
VPORT
  5
29
330
8
100
AcDbSymbolTableRecord
100
AcDbViewportTableRecord
  2
*Active
 70
     0
 10
0.0
 20
0.0
 11
1.0
 21
1.0
 12
0.2106089651
 22
-0.0000000004
 13
0.0
 23
0.0
 14
0.5
 24
0.5
 15
0.5
 25
0.5
 16
0.0
 26
0.0
 36
1.0
 17
0.0
 27
0.0
 37
0.0
 40
2.5323555065
 41
2.2470274002
 42
50.0
 43
0.0
 44
0.0
 50
0.0
 51
0.0
 71
     0
 72
   100
 73
     1
 74
     3
 75
     0
 76
     0
 77
     0
 78
     0
281
     0
 65
     1
110
0.0
120
0.0
130
0.0
111
1.0
121
0.0
131
0.0
112
0.0
122
1.0
132
0.0
 79
     0
146
0.0
  0
ENDTAB
  0
TABLE
  2
LTYPE
  5
5
330
0
100
AcDbSymbolTable
 70
     6
  0
LTYPE
  5
14
330
5
100
AcDbSymbolTableRecord
100
AcDbLinetypeTableRecord
  2
ByBlock
 70
     0
  3

 72
    65
 73
     0
 40
0.0
  0
LTYPE
  5
15
330
5
100
AcDbSymbolTableRecord
100
AcDbLinetypeTableRecord
  2
ByLayer
 70
     0
  3

 72
    65
 73
     0
 40
0.0
  0
LTYPE
  5
16
330
5
100
AcDbSymbolTableRecord
100
AcDbLinetypeTableRecord
  2
Continuous
 70
     0
  3
Solid line
 72
    65
 73
     0
 40
0.0
  0
LTYPE
  5
6E
330
5
100
AcDbSymbolTableRecord
100
AcDbLinetypeTableRecord
  2
HIDDEN
 70
     0
  3
Hidden __ __ __ __ __ __ __ __ __ __ __ __ __ __
 72
    65
 73
     2
 40
0.075
 49
0.05
 74
     0
 49
-0.025
 74
     0
  0
LTYPE
  5
6F
330
5
100
AcDbSymbolTableRecord
100
AcDbLinetypeTableRecord
  2
PHANTOM
 70
     0
  3
Phantom ______  __  __  ______  __  __  ______
 72
    65
 73
     6
 40
0.5
 49
0.25
 74
     0
 49
-0.05
 74
     0
 49
0.05
 74
     0
 49
-0.05
 74
     0
 49
0.05
 74
     0
 49
-0.05
 74
     0
  0
LTYPE
  5
70
330
5
100
AcDbSymbolTableRecord
100
AcDbLinetypeTableRecord
  2
CENTER
 70
     0
  3
Center ____ _ ____ _ ____ _ ____ _ ____ _ ____
 72
    65
 73
     4
 40
0.4
 49
0.25
 74
     0
 49
-0.05
 74
     0
 49
0.05
 74
     0
 49
-0.05
 74
     0
  0
LTYPE
  5
71
330
5
100
AcDbSymbolTableRecord
100
AcDbLinetypeTableRecord
  2
CENTERX2
 70
     0
  3
Center (2x) ________  __  ________  __  _____
 72
    65
 73
     4
 40
0.8
 49
0.5
 74
     0
 49
-0.1
 74
     0
 49
0.1
 74
     0
 49
-0.1
 74
     0
  0
LTYPE
  5
72
330
5
100
AcDbSymbolTableRecord
100
AcDbLinetypeTableRecord
  2
DOT2
 70
     0
  3
Dot (.5x) ........................................
 72
    65
 73
     2
 40
0.025
 49
0.0
 74
     0
 49
-0.025
 74
     0
  0
ENDTAB
  0
TABLE
  2
LAYER
  5
2
330
0
100
AcDbSymbolTable
 70
     1
  0
LAYER
  5
10
330
2
100
AcDbSymbolTableRecord
100
AcDbLayerTableRecord
  2
0
 70
     0
 62
     7
  6
Continuous
370
    -3
390
F
  0
ENDTAB
  0
TABLE
  2
STYLE
  5
3
330
0
100
AcDbSymbolTable
 70
     1
  0
STYLE
  5
11
330
3
100
AcDbSymbolTableRecord
100
AcDbTextStyleTableRecord
  2
Standard
 70
     0
 40
0.0
 41
1.0
 50
0.0
 71
     0
 42
0.125
  3
txt
  4

  0
ENDTAB
  0
TABLE
  2
VIEW
  5
6
330
0
100
AcDbSymbolTable
 70
     0
  0
ENDTAB
  0
TABLE
  2
UCS
  5
7
330
0
100
AcDbSymbolTable
 70
     0
  0
ENDTAB
  0
TABLE
  2
APPID
  5
9
330
0
100
AcDbSymbolTable
 70
     1
  0
APPID
  5
12
330
9
100
AcDbSymbolTableRecord
100
AcDbRegAppTableRecord
  2
ACAD
 70
     0
  0
ENDTAB
  0
TABLE
  2
DIMSTYLE
  5
A
330
0
100
AcDbSymbolTable
 70
     1
100
AcDbDimStyleTable
  0
DIMSTYLE
105
27
330
A
100
AcDbSymbolTableRecord
100
AcDbDimStyleTableRecord
  2
Standard
 70
     0
178
     0
340
11
  0
ENDTAB
  0
TABLE
  2
BLOCK_RECORD
  5
1
330
0
100
AcDbSymbolTable
 70
     1
  0
BLOCK_RECORD
  5
1F
330
1
100
AcDbSymbolTableRecord
100
AcDbBlockTableRecord
  2
*Model_Space
340
22
  0
BLOCK_RECORD
  5
1B
330
1
100
AcDbSymbolTableRecord
100
AcDbBlockTableRecord
  2
*Paper_Space
340
1E
  0
BLOCK_RECORD
  5
23
330
1
100
AcDbSymbolTableRecord
100
AcDbBlockTableRecord
  2
*Paper_Space0
340
26
  0
ENDTAB
  0
ENDSEC
  0
SECTION
  2
BLOCKS
  0
BLOCK
  5
20
330
1F
100
AcDbEntity
  8
0
100
AcDbBlockBegin
  2
*Model_Space
 70
     0
 10
0.0
 20
0.0
 30
0.0
  3
*Model_Space
  1

  0
ENDBLK
  5
21
330
1F
100
AcDbEntity
  8
0
100
AcDbBlockEnd
  0
BLOCK
  5
1C
330
1B
100
AcDbEntity
 67
     1
  8
0
100
AcDbBlockBegin
  2
*Paper_Space
 70
     0
 10
0.0
 20
0.0
 30
0.0
  3
*Paper_Space
  1

  0
ENDBLK
  5
1D
330
1B
100
AcDbEntity
 67
     1
  8
0
100
AcDbBlockEnd
  0
BLOCK
  5
24
330
23
100
AcDbEntity
  8
0
100
AcDbBlockBegin
  2
*Paper_Space0
 70
     0
 10
0.0
 20
0.0
 30
0.0
  3
*Paper_Space0
  1

  0
ENDBLK
  5
25
330
23
100
AcDbEntity
  8
0
100
AcDbBlockEnd
  0
ENDSEC
  0
SECTION
  2
ENTITIES
  0
SPLINE
  5
A3
330
1F
100
AcDbEntity
  8
0
  6
Continuous
 62
     7
370
    25
100
AcDbSpline
210
0.0
220
0.0
230
1.0
 70
     8
 71
     3
 72
    13
 73
     9
 74
     0
 42
0.000000001
 43
0.00000001
 40
0.0
 40
0.0
 40
0.0
 40
0.0
 40
0.0586271252827593
 40
0.1264143331544979
 40
0.2513928166973892
 40
0.4980912276298849
 40
0.736180316910765
 40
1.0
 40
1.0
 40
1.0
 40
1.0
 10
0.864692572272654
 20
0.159758052994818
 30
0.0
 10
0.8647382604384455
 20
0.1598794492593404
 30
0.0
 10
0.8648367752297422
 20
0.1601412091145787
 30
0.0
 10
0.8651551385357988
 20
0.1604816146720057
 30
0.0
 10
0.8659051260456294
 20
0.1607968525621046
 30
0.0
 10
0.8671007531173055
 20
0.1599925281752914
 30
0.0
 10
0.868204931312767
 20
0.1586353108690501
 30
0.0
 10
0.8687438962698105
 20
0.15754579560437
 30
0.0
 10
0.8690271938967713
 20
0.1569731107108752
 30
0.0
  0
SPLINE
  5
A4
330
1F
100
AcDbEntity
  8
0
  6
Continuous
 62
     7
370
    25
100
AcDbSpline
210
0.0
220
0.0
230
1.0
 70
     8
 71
     3
 72
    18
 73
    14
 74
     0
 42
0.000000001
 43
0.00000001
 40
0.0
 40
0.0
 40
0.0
 40
0.0
 40
0.0721421747142276
 40
0.1439221564418606
 40
0.2154183588179484
 40
0.2867101318626949
 40
0.3578775093962909
 40
0.4290009451740887
 40
0.5001610419878415
 40
0.6259982413027443
 40
0.7509380564477649
 40
0.8754478936604817
 40
1.0
 40
1.0
 40
1.0
 40
1.0
 10
0.8690271940590061
 20
0.1569731107319297
 30
0.0
 10
0.8708332734266571
 20
0.1534344600126258
 30
0.0
 10
0.8744363646604214
 20
0.1463749245268412
 30
0.0
 10
0.8793827095721174
 20
0.1355787334320962
 30
0.0
 10
0.8839722973315808
 20
0.1246707623604877
 30
0.0
 10
0.8881739570778199
 20
0.11363449517988
 30
0.0
 10
0.891995905334633
 20
0.1024751489433608
 30
0.0
 10
0.8954361418451793
 20
0.0911920193247553
 30
0.0
 10
0.8992756738957429
 20
0.0768730217806187
 30
0.0
 10
0.9030867500723913
 20
0.0594614086141978
 30
0.0
 10
0.9062584090743107
 20
0.0389169453082631
 30
0.0
 10
0.9082442635544667
 20
0.0182747773736172
 30
0.0
 10
0.908488843285261
 20
0.0044727776435542
 30
0.0
 10
0.9086111539048762
 20
-0.0024293934130058
 30
0.0
  0
SPLINE
  5
A5
330
1F
100
AcDbEntity
  8
0
  6
Continuous
 62
     7
370
    25
100
AcDbSpline
210
0.0
220
0.0
230
1.0
 70
     8
 71
     3
 72
     8
 73
     4
 74
     0
 42
0.000000001
 43
0.00000001
 40
0.0
 40
0.0
 40
0.0
 40
0.0
 40
1.0
 40
1.0
 40
1.0
 40
1.0
 10
0.9086052559280935
 20
-0.0024294145184765
 30
0.0
 10
0.9034023224536855
 20
-0.0023907019322113
 30
0.0
 10
0.8981994249527939
 20
-0.0023486473251719
 30
0.0
 10
0.8929965659939149
 20
-0.0023032507315612
 30
0.0
  0
SPLINE
  5
A6
330
1F
100
AcDbEntity
  8
0
  6
Continuous
 62
     7
370
    25
100
AcDbSpline
210
0.0
220
0.0
230
1.0
 70
     8
 71
     3
 72
     8
 73
     4
 74
     0
 42
0.000000001
 43
0.00000001
 40
0.0
 40
0.0
 40
0.0
 40
0.0
 40
1.0
 40
1.0
 40
1.0
 40
1.0
 10
0.8684634154440759
 20
0.1214021645466807
 30
0.0
 10
0.8846111791826401
 20
0.0824161756699412
 30
0.0
 10
0.8930101578992578
 20
0.0400543069971751
 30
0.0
 10
0.893004047157087
 20
-0.0023032639681229
 30
0.0
  0
SPLINE
  5
A7
330
1F
100
AcDbEntity
  8
0
  6
Continuous
 62
     7
370
    25
100
AcDbSpline
210
0.0
220
0.0
230
1.0
 70
     8
 71
     3
 72
    10
 73
     6
 74
     0
 42
0.000000001
 43
0.00000001
 40
0.0
 40
0.0
 40
0.0
 40
0.0
 40
0.2664989975807354
 40
0.5998198346038166
 40
1.0
 40
1.0
 40
1.0
 40
1.0
 10
0.8631192528376077
 20
0.1571123636481486
 30
0.0
 10
0.8636351437694851
 20
0.1539582412472194
 30
0.0
 10
0.8647962798947292
 20
0.1468591332054626
 30
0.0
 10
0.8666369998092214
 20
0.1349587544052357
 30
0.0
 10
0.8678529683192228
 20
0.1261912579923929
 30
0.0
 10
0.8685163709292314
 20
0.1214079268816926
 30
0.0
  0
SPLINE
  5
A8
330
1F
100
AcDbEntity
  8
0
  6
Continuous
 62
     7
370
    25
100
AcDbSpline
210
0.0
220
0.0
230
1.0
 70
     8
 71
     3
 72
     9
 73
     5
 74
     0
 42
0.000000001
 43
0.00000001
 40
0.0
 40
0.0
 40
0.0
 40
0.0
 40
0.5038752814395128
 40
0.9999999999999999
 40
0.9999999999999999
 40
0.9999999999999999
 40
0.9999999999999999
 10
0.8632210639730523
 20
0.1571238160264444
 30
0.0
 10
0.8634570796174917
 20
0.1575914749471508
 30
0.0
 10
0.8639254805356021
 20
0.1585195993023886
 30
0.0
 10
0.8644381914628329
 20
0.1593473742764204
 30
0.0
 10
0.8646925600273084
 20
0.1597580539024433
 30
0.0
  0
SPLINE
  5
A9
330
1F
100
AcDbEntity
  8
0
  6
Continuous
 62
     7
370
    25
100
AcDbSpline
210
0.0
220
0.0
230
1.0
 70
     8
 71
     3
 72
    18
 73
    14
 74
     0
 42
0.000000001
 43
0.00000001
 40
0.0
 40
0.0
 40
0.0
 40
0.0
 40
0.0716659270737186
 40
0.1432008267998103
 40
0.2146881034978274
 40
0.2862113280895815
 40
0.3578539456978937
 40
0.4296989854364885
 40
0.5018287773941066
 40
0.6256892588285817
 40
0.7497352625616113
 40
0.8743722599003453
 40
1.0
 40
1.0
 40
1.0
 40
1.0
 10
0.9086111539048763
 20
-0.0024293934130058
 30
0.0
 10
0.9085178404304105
 20
-0.0062852924460195
 30
0.0
 10
0.9083313840871977
 20
-0.013990040743159
 30
0.0
 10
0.9075531728742734
 20
-0.0255192429068878
 30
0.0
 10
0.9064099767871657
 20
-0.0370064358610294
 30
0.0
 10
0.9048662011003591
 20
-0.0484501017380995
 30
0.0
 10
0.902931358035037
 20
-0.0598493383247502
 30
0.0
 10
0.9006030394215615
 20
-0.0712033756571925
 30
0.0
 10
0.8972356696559005
 20
-0.0851933910591953
 30
0.0
 10
0.8924590083626279
 20
-0.1017067573176264
 30
0.0
 10
0.8857832257630778
 20
-0.1205438205668018
 30
0.0
 10
0.8780731266478312
 20
-0.1390707783913035
 30
0.0
 10
0.8720505253420673
 20
-0.1510304117717676
 30
0.0
 10
0.869027303615712
 20
-0.1570339012341134
 30
0.0
  0
SPLINE
  5
AA
330
1F
100
AcDbEntity
  8
0
  6
Continuous
 62
     7
370
    25
100
AcDbSpline
210
0.0
220
0.0
230
1.0
 70
     8
 71
     3
 72
    12
 73
     8
 74
     0
 42
0.000000001
 43
0.00000001
 40
0.0
 40
0.0
 40
0.0
 40
0.0
 40
0.5001877824382805
 40
0.7473545294745773
 40
0.872806242517787
 40
0.9426723237493684
 40
1.0
 40
1.0
 40
1.0
 40
1.0
 10
0.8690273034769304
 20
-0.1570339012164777
 30
0.0
 10
0.8684636751016533
 20
-0.1581068724088495
 30
0.0
 10
0.8676215309430131
 20
-0.1597100500728575
 30
0.0
 10
0.8659071396259492
 20
-0.1608444056555706
 30
0.0
 10
0.8651574817114389
 20
-0.1605290941782574
 30
0.0
 10
0.8648365201238524
 20
-0.1601960626706527
 30
0.0
 10
0.8647376038333173
 20
-0.1599345592426954
 30
0.0
 10
0.8646930211337261
 20
-0.1598166966671011
 30
0.0
  0
SPLINE
  5
AB
330
1F
100
AcDbEntity
  8
0
  6
Continuous
 62
     7
370
    25
100
AcDbSpline
210
0.0
220
0.0
230
1.0
 70
     8
 71
     3
 72
     9
 73
     5
 74
     0
 42
0.000000001
 43
0.00000001
 40
0.0
 40
0.0
 40
0.0
 40
0.0
 40
0.4998879845860444
 40
1.0
 40
1.0
 40
1.0
 40
1.0
 10
0.864693010630961
 20
-0.1598166974461864
 30
0.0
 10
0.8644365668153445
 20
-0.1593995797242497
 30
0.0
 10
0.8639235642557234
 20
-0.1585651573440396
 30
0.0
 10
0.8634536365898229
 20
-0.1576337191061355
 30
0.0
 10
0.8632186201177309
 20
-0.1571678956517437
 30
0.0
  0
SPLINE
  5
AC
330
1F
100
AcDbEntity
  8
0
  6
Continuous
 62
     7
370
    25
100
AcDbSpline
210
0.0
220
0.0
230
1.0
 70
     8
 71
     3
 72
     9
 73
     5
 74
     0
 42
0.000000001
 43
0.00000001
 40
0.0
 40
0.0
 40
0.0
 40
0.0
 40
0.5596854891315339
 40
0.9999999999999999
 40
0.9999999999999999
 40
0.9999999999999999
 40
0.9999999999999999
 10
0.8685009163284317
 20
-0.1214750703891135
 30
0.0
 10
0.8675730723642083
 20
-0.1281616719846386
 30
0.0
 10
0.8659152770805333
 20
-0.1401087417682427
 30
0.0
 10
0.8639940867667323
 20
-0.1519472603072847
 30
0.0
 10
0.8631481587934258
 20
-0.1571599318072102
 30
0.0
  0
SPLINE
  5
AD
330
1F
100
AcDbEntity
  8
0
  6
Continuous
 62
     7
370
    25
100
AcDbSpline
210
0.0
220
0.0
230
1.0
 70
     8
 71
     3
 72
     8
 73
     4
 74
     0
 42
0.000000001
 43
0.00000001
 40
0.0
 40
0.0
 40
0.0
 40
0.0
 40
1.0
 40
1.0
 40
1.0
 40
1.0
 10
0.8929878487026089
 20
-0.0023029243233762
 30
0.0
 10
0.8924130694385358
 20
-0.0431447230697247
 30
0.0
 10
0.8840328151879372
 20
-0.0838745087746334
 30
0.0
 10
0.8684557628987175
 20
-0.1214691501062151
 30
0.0
  0
SPLINE
  5
AE
330
1F
100
AcDbEntity
  8
0
  6
Continuous
 62
     7
370
    25
100
AcDbSpline
210
0.0
220
0.0
230
1.0
 70
     8
 71
     3
 72
    19
 73
    15
 74
     0
 42
0.000000001
 43
0.00000001
 40
0.0
 40
0.0
 40
0.0
 40
0.0
 40
0.0833389319982242
 40
0.1666778661862051
 40
0.250016802563942
 40
0.3333557436032329
 40
0.4166946868322809
 40
0.5000336322510857
 40
0.5833725798596465
 40
0.666711529657964
 40
0.7500504816460377
 40
0.8333894358238685
 40
0.9167283921914554
 40
1.0
 40
1.0
 40
1.0
 40
1.0
 10
0.8646925600273102
 20
0.1597580670346906
 30
0.0
 10
0.8646925662857048
 20
0.2086730122778836
 30
0.0
 10
0.8646925788024944
 20
0.3065029040495253
 30
0.0
 10
0.864692597577678
 20
0.448214441641172
 30
0.0
 10
0.8646926163528632
 20
0.5836328584647575
 30
0.0
 10
0.8646926351280473
 20
0.7105971523955321
 30
0.0
 10
0.864692653903232
 20
0.8273346145849296
 30
0.0
 10
0.8646926726784167
 20
0.9321458497959231
 30
0.0
 10
0.8646926914536011
 20
1.023533022039423
 30
0.0
 10
0.8646927102287857
 20
1.100146932746631
 30
0.0
 10
0.8646927290039707
 20
1.16100071851393
 30
0.0
 10
0.8646927477791552
 20
1.204781547241286
 30
0.0
 10
0.8646927665492818
 20
1.232477910798319
 30
0.0
 10
0.8646927790610138
 20
1.235920182456227
 30
0.0
 10
0.8646927853143511
 20
1.237640622554879
 30
0.0
  0
SPLINE
  5
AF
330
1F
100
AcDbEntity
  8
0
  6
Continuous
 62
     7
370
    25
100
AcDbSpline
210
0.0
220
0.0
230
1.0
 70
    24
 71
     3
 72
    14
 73
    10
 74
     0
 42
0.000000001
 43
0.00000001
 40
0.0
 40
0.0
 40
0.0
 40
0.0
 40
0.25
 40
0.25
 40
0.5
 40
0.5
 40
0.75
 40
0.75
 40
1.0
 40
1.0
 40
1.0
 40
1.0
 10
1.062992125984252
 20
-1.208907480314962
 30
0.0
 10
1.062992125984252
 20
-1.208907480314954
 30
0.0
 10
1.062992125984252
 20
-1.081534391701632
 30
0.0
 10
1.062992125984252
 20
-0.6281189626103988
 30
0.0
 10
1.062992125984252
 20
-0.3206131245991642
 30
0.0
 10
1.062992125984252
 20
0.3206131246094974
 30
0.0
 10
1.062992125984252
 20
0.6281189626196432
 30
0.0
 10
1.062992125984252
 20
1.081534391707001
 30
0.0
 10
1.062992125984252
 20
1.208907480317694
 30
0.0
 10
1.062992125984252
 20
1.208907480314962
 30
0.0
  0
SPLINE
  5
B0
330
1F
100
AcDbEntity
  8
0
  6
Continuous
 62
     7
370
    25
100
AcDbSpline
210
0.0
220
0.0
230
1.0
 70
     8
 71
     3
 72
    20
 73
    16
 74
     0
 42
0.000000001
 43
0.00000001
 40
0.0
 40
0.0
 40
0.0
 40
0.0
 40
0.0759379184466905
 40
0.1481358093305472
 40
0.2165575575081821
 40
0.2811685717195243
 40
0.3419359828912806
 40
0.3988288573252118
 40
0.4518184365387388
 40
0.5008784220201835
 40
0.6330635068021911
 40
0.7492372626339435
 40
0.8361498609334854
 40
0.9197021980695779
 40
0.9999999999999999
 40
0.9999999999999999
 40
0.9999999999999999
 40
0.9999999999999999
 10
0.752111139246102
 20
0.2829580846711305
 30
0.0
 10
0.7551464108397135
 20
0.2808457591513882
 30
0.0
 10
0.7610674635002934
 20
0.2767251425103584
 30
0.0
 10
0.7696547503854695
 20
0.2702286425285774
 30
0.0
 10
0.7777432465332531
 20
0.2637521093063218
 30
0.0
 10
0.7853284409537018
 20
0.2573110282060622
 30
0.0
 10
0.7924115605907214
 20
0.2509587848714029
 30
0.0
 10
0.7989921042476874
 20
0.2447352488555918
 30
0.0
 10
0.8050711020946936
 20
0.238683353124707
 30
0.0
 10
0.813944208765239
 20
0.2293692205801795
 30
0.0
 10
0.8250192788664381
 20
0.2166603659534504
 30
0.0
 10
0.8371309808187994
 20
0.2008274741582355
 30
0.0
 10
0.8470841457268787
 20
0.185939540124423
 30
0.0
 10
0.8554928872781364
 20
0.1719758448899523
 30
0.0
 10
0.8606731512164963
 20
0.1619962500253592
 30
0.0
 10
0.8632118357122164
 20
0.1571055643271453
 30
0.0
  0
SPLINE
  5
B1
330
1F
100
AcDbEntity
  8
0
  6
Continuous
 62
     7
370
    25
100
AcDbSpline
210
0.0
220
0.0
230
1.0
 70
     8
 71
     3
 72
    19
 73
    15
 74
     0
 42
0.000000001
 43
0.00000001
 40
0.0
 40
0.0
 40
0.0
 40
0.0
 40
0.0400132932090724
 40
0.0807126982937126
 40
0.1221373630069615
 40
0.1643244161219937
 40
0.2073090108744248
 40
0.2511243809301096
 40
0.3714873451357224
 40
0.5013124136035051
 40
0.6198808639011885
 40
0.7423736188364795
 40
0.8690129443533695
 40
0.9999999999999999
 40
0.9999999999999999
 40
0.9999999999999999
 40
0.9999999999999999
 10
0.8685163709292314
 20
0.1214079268816926
 30
0.0
 10
0.8673742126442069
 20
0.1241250893324033
 30
0.0
 10
0.8650703113736674
 20
0.1296060056857087
 30
0.0
 10
0.8614124669050428
 20
0.1375455459773591
 30
0.0
 10
0.8575742961391377
 20
0.1453639635659237
 30
0.0
 10
0.8535438924600431
 20
0.1530341571020024
 30
0.0
 10
0.849326327798422
 20
0.1605622457068084
 30
0.0
 10
0.8423867142468134
 20
0.1721953754734615
 30
0.0
 10
0.8321369708712459
 20
0.1875217964545496
 30
0.0
 10
0.8186975062681144
 20
0.2048447125377371
 30
0.0
 10
0.8047288783884344
 20
0.2206345565678971
 30
0.0
 10
0.7905562095853308
 20
0.2347451360043147
 30
0.0
 10
0.7756636521268381
 20
0.2479408250510681
 30
0.0
 10
0.7654340309305804
 20
0.2556892882730836
 30
0.0
 10
0.7602329022463726
 20
0.2596289018276202
 30
0.0
  0
SPLINE
  5
B2
330
1F
100
AcDbEntity
  8
0
  6
Continuous
 62
     7
370
    25
100
AcDbSpline
210
0.0
220
0.0
230
1.0
 70
     8
 71
     3
 72
     9
 73
     5
 74
     0
 42
0.000000001
 43
0.00000001
 40
0.0
 40
0.0
 40
0.0
 40
0.0
 40
0.5374203212883376
 40
1.0
 40
1.0
 40
1.0
 40
1.0
 10
0.7602329022463726
 20
0.2596289018276202
 30
0.0
 10
0.7587979571500918
 20
0.2638397218826279
 30
0.0
 10
0.75612789604626
 20
0.2716749671984606
 30
0.0
 10
0.7534227325775821
 20
0.2793830456613905
 30
0.0
 10
0.7521713789293786
 20
0.2829486461202569
 30
0.0
  0
SPLINE
  5
B3
330
1F
100
AcDbEntity
  8
0
  6
Continuous
 62
     7
370
    25
100
AcDbSpline
210
0.0
220
0.0
230
1.0
 70
     8
 71
     3
 72
    20
 73
    16
 74
     0
 42
0.000000001
 43
0.00000001
 40
0.0
 40
0.0
 40
0.0
 40
0.0
 40
0.0660118268338122
 40
0.1310172350443562
 40
0.1950397102185916
 40
0.2581038361041406
 40
0.320235334031933
 40
0.3814611007471862
 40
0.4418092440356468
 40
0.5013091154600763
 40
0.6305606225634945
 40
0.7499982620451507
 40
0.8358158910143947
 40
0.9190657209545438
 40
1.0
 40
1.0
 40
1.0
 40
1.0
 10
0.768756082295259
 20
-0.2530927838345919
 30
0.0
 10
0.7711756935679165
 20
-0.2511753221433565
 30
0.0
 10
0.7759780266350474
 20
-0.247369632448969
 30
0.0
 10
0.7830835325510663
 20
-0.2412951725344738
 30
0.0
 10
0.79004007010595
 20
-0.2350066206854437
 30
0.0
 10
0.7968406280656106
 20
-0.228475659977119
 30
0.0
 10
0.8034812893589721
 20
-0.2217097237313565
 30
0.0
 10
0.8099572717116422
 20
-0.214706565055642
 30
0.0
 10
0.8162638091366063
 20
-0.207468168008441
 30
0.0
 10
0.8248206176728511
 20
-0.1970337250700756
 30
0.0
 10
0.8351392267281182
 20
-0.1832169341824405
 30
0.0
 10
0.8458611624292242
 20
-0.1667170283685638
 30
0.0
 10
0.854656338031874
 20
-0.1511663063893335
 30
0.0
 10
0.8619332374243094
 20
-0.1367904717965673
 30
0.0
 10
0.8663323709109421
 20
-0.1265319777111662
 30
0.0
 10
0.8685009163284317
 20
-0.1214750703891135
 30
0.0
  0
SPLINE
  5
B4
330
1F
100
AcDbEntity
  8
0
  6
Continuous
 62
     7
370
    25
100
AcDbSpline
210
0.0
220
0.0
230
1.0
 70
     8
 71
     3
 72
    20
 73
    16
 74
     0
 42
0.000000001
 43
0.00000001
 40
0.0
 40
0.0
 40
0.0
 40
0.0
 40
0.0430211331504776
 40
0.0876679206820688
 40
0.1339548210993079
 40
0.1818938902754413
 40
0.2314950954842757
 40
0.2827665860234955
 40
0.3357149271570712
 40
0.3903453031010531
 40
0.4466616938942259
 40
0.5554874505020827
 40
0.6842157993546037
 40
0.8325147343881922
 40
0.9999999999999999
 40
0.9999999999999999
 40
0.9999999999999999
 40
0.9999999999999999
 10
0.8632122212105655
 20
-0.1571552255546529
 30
0.0
 10
0.8618823917382862
 20
-0.1597605482478014
 30
0.0
 10
0.8591724820692715
 20
-0.165069641860358
 30
0.0
 10
0.854881119631413
 20
-0.1727920802856689
 30
0.0
 10
0.8503315562229766
 20
-0.1805121936661684
 30
0.0
 10
0.8455115476889564
 20
-0.188186015985085
 30
0.0
 10
0.8404245348015033
 20
-0.195807658488838
 30
0.0
 10
0.835069488830312
 20
-0.2033598814209331
 30
0.0
 10
0.82944680100156
 20
-0.2108285799296622
 30
0.0
 10
0.8235558512304076
 20
-0.2181966822942852
 30
0.0
 10
0.8155466476531572
 20
-0.2276367123511454
 30
0.0
 10
0.8046184335290487
 20
-0.2393668591233957
 30
0.0
 10
0.7899880719835899
 20
-0.2533868350617376
 30
0.0
 10
0.7728761572581784
 20
-0.2680983049123153
 30
0.0
 10
0.7604983870461346
 20
-0.2770912482151893
 30
0.0
 10
0.7539334793420471
 20
-0.2818609152683081
 30
0.0
  0
SPLINE
  5
B5
330
1F
100
AcDbEntity
  8
0
  6
Continuous
 62
     7
370
    25
100
AcDbSpline
210
0.0
220
0.0
230
1.0
 70
     8
 71
     3
 72
    11
 73
     7
 74
     0
 42
0.000000001
 43
0.00000001
 40
0.0
 40
0.0
 40
0.0
 40
0.0
 40
0.2507626546286671
 40
0.5009380465226145
 40
0.7853970434500928
 40
1.0
 40
1.0
 40
1.0
 40
1.0
 10
0.7496033479368043
 20
-0.2876305825098772
 30
0.0
 10
0.7499880491893596
 20
-0.2870569872497134
 30
0.0
 10
0.7507565507600389
 20
-0.2859111400359541
 30
0.0
 10
0.7518759823999819
 20
-0.2842082439652669
 30
0.0
 10
0.7529910660131305
 20
-0.2827093201711081
 30
0.0
 10
0.7536500910543135
 20
-0.2821160351910707
 30
0.0
 10
0.7539334801632064
 20
-0.2818609151405329
 30
0.0
  0
SPLINE
  5
B6
330
1F
100
AcDbEntity
  8
0
  6
Continuous
 62
     7
370
    25
100
AcDbSpline
210
0.0
220
0.0
230
1.0
 70
     8
 71
     3
 72
    12
 73
     8
 74
     0
 42
0.000000001
 43
0.00000001
 40
0.0
 40
0.0
 40
0.0
 40
0.0
 40
0.109991979216478
 40
0.2766445079209705
 40
0.5000097308773263
 40
0.7439906135497122
 40
1.0
 40
1.0
 40
1.0
 40
1.0
 10
0.7496033479367951
 20
-0.2876305825098765
 30
0.0
 10
0.7503654942330966
 20
-0.2864016841724112
 30
0.0
 10
0.7522823938889263
 20
-0.2833108408375179
 30
0.0
 10
0.7555316603260611
 20
-0.2775962031818043
 30
0.0
 10
0.759611182057276
 20
-0.2703178495668172
 30
0.0
 10
0.7641822471530225
 20
-0.2619528873778031
 30
0.0
 10
0.7672664527910472
 20
-0.2561168014692387
 30
0.0
 10
0.7688456547112421
 20
-0.2531285577673273
 30
0.0
  0
SPLINE
  5
B7
330
1F
100
AcDbEntity
  8
0
  6
Continuous
 62
     7
370
    25
100
AcDbSpline
210
0.0
220
0.0
230
1.0
 70
     8
 71
     3
 72
    19
 73
    15
 74
     0
 42
0.000000001
 43
0.00000001
 40
0.0
 40
0.0
 40
0.0
 40
0.0
 40
0.0832413396485434
 40
0.1665830257774648
 40
0.2499247140962111
 40
0.3332664046047817
 40
0.416608097303177
 40
0.4999497921913975
 40
0.5832914892694421
 40
0.666633188537311
 40
0.7499748899950052
 40
0.8333165911401789
 40
0.9166582944751773
 40
1.0
 40
1.0
 40
1.0
 40
1.0
 10
0.8646927853517076
 20
-1.237637099965326
 30
0.0
 10
0.8646927916025573
 20
-1.235919493821401
 30
0.0
 10
0.8646928041117925
 20
-1.232482210979043
 30
0.0
 10
0.8646928228794126
 20
-1.204795539523168
 30
0.0
 10
0.8646928416545673
 20
-1.161021824007341
 30
0.0
 10
0.8646928604297223
 20
-1.100174498927538
 30
0.0
 10
0.8646928792048768
 20
-1.023566736386891
 30
0.0
 10
0.8646928979800325
 20
-0.9321851929750588
 30
0.0
 10
0.8646929167551867
 20
-0.8273790162930236
 30
0.0
 10
0.8646929355303419
 20
-0.710645958249857
 30
0.0
 10
0.8646929543054965
 20
-0.5836853572834068
 30
0.0
 10
0.864692973080651
 20
-0.4482698466658025
 30
0.0
 10
0.8646929918558058
 20
-0.3065604636204778
 30
0.0
 10
0.864693004372575
 20
-0.2087312954620462
 30
0.0
 10
0.8646930106309596
 20
-0.159816710740209
 30
0.0
  0
SPLINE
  5
B8
330
1F
100
AcDbEntity
  8
0
  6
Continuous
 62
     7
370
    25
100
AcDbSpline
210
0.0
220
0.0
230
1.0
 70
     8
 71
     3
 72
     8
 73
     4
 74
     0
 42
0.000000001
 43
0.00000001
 40
0.0
 40
0.0
 40
0.0
 40
0.0
 40
1.0
 40
1.0
 40
1.0
 40
1.0
 10
0.753929553296138
 20
0.2854854765528209
 30
0.0
 10
0.7533184161297268
 20
0.2846230635273853
 30
0.0
 10
0.7527072789633156
 20
0.2837622526669991
 30
0.0
 10
0.7520961417969045
 20
0.2829030460725301
 30
0.0
  0
SPLINE
  5
B9
330
1F
100
AcDbEntity
  8
0
  6
Continuous
 62
     7
370
    25
100
AcDbSpline
210
0.0
220
0.0
230
1.0
 70
     8
 71
     3
 72
    19
 73
    15
 74
     0
 42
0.000000001
 43
0.00000001
 40
0.0
 40
0.0
 40
0.0
 40
0.0
 40
0.0820581634443023
 40
0.1655075351540405
 40
0.248956884254962
 40
0.3324062107470662
 40
0.4158555146303534
 40
0.4993047959048239
 40
0.5827540545704774
 40
0.6662032906273143
 40
0.7496525040753339
 40
0.8331016919923716
 40
0.9165508573005935
 40
1.0
 40
1.0
 40
1.0
 40
1.0
 10
0.7539315135918728
 20
1.045703772179612
 30
0.0
 10
0.7539314599725337
 20
1.044608183848893
 30
0.0
 10
0.753931351824797
 20
1.042398432660833
 30
0.0
 10
0.7539311891486217
 20
1.023735494176735
 30
0.0
 10
0.7539310255633764
 20
0.9939493889840585
 30
0.0
 10
0.7539308619781299
 20
0.9523348493135428
 30
0.0
 10
0.7539306983928835
 20
0.8996869218014767
 30
0.0
 10
0.7539305348076378
 20
0.8365357340526878
 30
0.0
 10
0.7539303712223909
 20
0.763641101188068
 30
0.0
 10
0.7539302076371455
 20
0.6818407902997727
 30
0.0
 10
0.7539300440519006
 20
0.5921114936794597
 30
0.0
 10
0.753929880466658
 20
0.4954173802747888
 30
0.0
 10
0.7539297168814196
 20
0.393188378479369
 30
0.0
 10
0.7539296078245719
 20
0.3213864482372016
 30
0.0
 10
0.7539295532961552
 20
0.2854854879794283
 30
0.0
  0
SPLINE
  5
BA
330
1F
100
AcDbEntity
  8
0
  6
Continuous
 62
     7
370
    25
100
AcDbSpline
210
0.0
220
0.0
230
1.0
 70
     8
 71
     3
 72
    20
 73
    16
 74
     0
 42
0.000000001
 43
0.00000001
 40
0.0
 40
0.0
 40
0.0
 40
0.0
 40
0.0832175527033794
 40
0.1664350808542118
 40
0.2496525844535077
 40
0.3328700635022778
 40
0.4160875180015326
 40
0.4993049479522826
 40
0.5825223533555389
 40
0.6657397342123125
 40
0.7489570905236146
 40
0.8321744222904565
 40
0.9153917295138492
 40
0.9986090121948044
 40
1.0
 40
1.0
 40
1.0
 40
1.0
 10
0.7539334801632065
 20
-0.2818609151405329
 30
0.0
 10
0.7539334207771401
 20
-0.3178029296357885
 30
0.0
 10
0.7539333020050247
 20
-0.3896869480219504
 30
0.0
 10
0.7539331238189316
 20
-0.4920911134385462
 30
0.0
 10
0.7539329456124338
 20
-0.5889959439978136
 30
0.0
 10
0.7539327673835267
 20
-0.6789732004528471
 30
0.0
 10
0.7539325891327466
 20
-0.7610536857644683
 30
0.0
 10
0.7539324108599559
 20
-0.834261895405461
 30
0.0
 10
0.7539322325651756
 20
-0.8977407885358577
 30
0.0
 10
0.7539320542484623
 20
-0.9507848125368076
 30
0.0
 10
0.7539318759095776
 20
-0.9926425789992283
 30
0.0
 10
0.7539316975494232
 20
-1.023324771480367
 30
0.0
 10
0.7539315191646331
 20
-1.040612965948725
 30
0.0
 10
0.7539313992394023
 20
-1.047763959168489
 30
0.0
 10
0.753931338769639
 20
-1.045736543945361
 30
0.0
 10
0.7539313377754961
 20
-1.045703212572019
 30
0.0
  0
SPLINE
  5
BB
330
1F
100
AcDbEntity
  8
0
  6
Continuous
 62
     7
370
    25
100
AcDbSpline
210
0.0
220
0.0
230
1.0
 70
     8
 71
     3
 72
     9
 73
     5
 74
     0
 42
0.000000001
 43
0.00000001
 40
0.0
 40
0.0
 40
0.0
 40
0.0
 40
0.4601654251256088
 40
0.9999999999999999
 40
0.9999999999999999
 40
0.9999999999999999
 40
0.9999999999999999
 10
0.5649676021709354
 20
0.3379249860514466
 30
0.0
 10
0.5480572777002205
 20
0.3379376433960964
 30
0.0
 10
0.5113089182029833
 20
0.3379651494709961
 30
0.0
 10
0.4742189335680356
 20
0.3379798313885015
 30
0.0
 10
0.4541964774805309
 20
0.3379877571951964
 30
0.0
  0
SPLINE
  5
BC
330
1F
100
AcDbEntity
  8
0
  6
Continuous
 62
     7
370
    25
100
AcDbSpline
210
0.0
220
0.0
230
1.0
 70
     8
 71
     3
 72
     8
 73
     4
 74
     0
 42
0.000000001
 43
0.00000001
 40
0.0
 40
0.0
 40
0.0
 40
0.0
 40
1.0
 40
1.0
 40
1.0
 40
1.0
 10
0.5657408715578452
 20
0.3373506197945915
 30
0.0
 10
0.5669266802766643
 20
0.3383719088102007
 30
0.0
 10
0.5681121142665888
 20
0.3393935615147115
 30
0.0
 10
0.5692971732446953
 20
0.3404155776264034
 30
0.0
  0
SPLINE
  5
BF
330
1F
100
AcDbEntity
  8
0
  6
Continuous
 62
     7
370
    25
100
AcDbSpline
210
0.0
220
0.0
230
1.0
 70
     8
 71
     3
 72
     8
 73
     4
 74
     0
 42
0.000000001
 43
0.00000001
 40
0.0
 40
0.0
 40
0.0
 40
0.0
 40
1.0
 40
1.0
 40
1.0
 40
1.0
 10
0.451990331916868
 20
0.3370928734251236
 30
0.0
 10
0.449187316672173
 20
0.3322270237157123
 30
0.0
 10
0.4463801982410722
 20
0.3273652738225065
 30
0.0
 10
0.4435689872491125
 20
0.3225076340325385
 30
0.0
  0
SPLINE
  5
C0
330
1F
100
AcDbEntity
  8
0
  6
Continuous
 62
     7
370
    25
100
AcDbSpline
210
0.0
220
0.0
230
1.0
 70
     8
 71
     3
 72
     9
 73
     5
 74
     0
 42
0.000000001
 43
0.00000001
 40
0.0
 40
0.0
 40
0.0
 40
0.0
 40
0.5397015033558155
 40
1.0
 40
1.0
 40
1.0
 40
1.0
 10
0.4519929268435976
 20
0.3370902806297694
 30
0.0
 10
0.4524443090380871
 20
0.3373588260617944
 30
0.0
 10
0.4532806643042536
 20
0.3378564074662471
 30
0.0
 10
0.4539097253418789
 20
0.3379444376866216
 30
0.0
 10
0.4541992811917951
 20
0.3379849578647192
 30
0.0
  0
SPLINE
  5
C1
330
1F
100
AcDbEntity
  8
0
  6
Continuous
 62
     7
370
    25
100
AcDbSpline
210
0.0
220
0.0
230
1.0
 70
     8
 71
     3
 72
    11
 73
     7
 74
     0
 42
0.000000001
 43
0.00000001
 40
0.0
 40
0.0
 40
0.0
 40
0.0
 40
0.2552743462261319
 40
0.5000981262042138
 40
0.7616765923950267
 40
1.0
 40
1.0
 40
1.0
 40
1.0
 10
0.5692971732446953
 20
0.3404155776264034
 30
0.0
 10
0.5688958018397131
 20
0.3400816529628449
 30
0.0
 10
0.5681094906004093
 20
0.339427474033361
 30
0.0
 10
0.5669256047582586
 20
0.3386398021064236
 30
0.0
 10
0.5658053444783427
 20
0.3380398438420515
 30
0.0
 10
0.5652380529485319
 20
0.3379620659249439
 30
0.0
 10
0.5649676021709354
 20
0.3379249860514466
 30
0.0
  0
SPLINE
  5
C2
330
1F
100
AcDbEntity
  8
0
  6
Continuous
 62
     7
370
    25
100
AcDbSpline
210
0.0
220
0.0
230
1.0
 70
     8
 71
     3
 72
     9
 73
     5
 74
     0
 42
0.000000001
 43
0.00000001
 40
0.0
 40
0.0
 40
0.0
 40
0.0
 40
0.5396710922770042
 40
1.0
 40
1.0
 40
1.0
 40
1.0
 10
0.454196500896754
 20
-0.3379877338150163
 30
0.0
 10
0.4742128819235247
 20
-0.3379799131044467
 30
0.0
 10
0.5113028452608545
 20
-0.337965421480416
 30
0.0
 10
0.5480515458812932
 20
-0.337937444304431
 30
0.0
 10
0.5649680350981395
 20
-0.3379245656015687
 30
0.0
  0
SPLINE
  5
C3
330
1F
100
AcDbEntity
  8
0
  6
Continuous
 62
     7
370
    25
100
AcDbSpline
210
0.0
220
0.0
230
1.0
 70
     8
 71
     3
 72
     9
 73
     5
 74
     0
 42
0.000000001
 43
0.00000001
 40
0.0
 40
0.0
 40
0.0
 40
0.0
 40
0.5117420801056566
 40
1.0
 40
1.0
 40
1.0
 40
1.0
 10
0.5692977043658889
 20
-0.3404150627098573
 30
0.0
 10
0.565765717037032
 20
-0.3373636885449181
 30
0.0
 10
0.5588638274599086
 20
-0.3314009696606139
 30
0.0
 10
0.5519504381716337
 20
-0.3254239359381381
 30
0.0
 10
0.5485749210983207
 20
-0.3225056018856637
 30
0.0
  0
SPLINE
  5
C4
330
1F
100
AcDbEntity
  8
0
  6
Continuous
 62
     7
370
    25
100
AcDbSpline
210
0.0
220
0.0
230
1.0
 70
     8
 71
     3
 72
    12
 73
     8
 74
     0
 42
0.000000001
 43
0.00000001
 40
0.0
 40
0.0
 40
0.0
 40
0.0
 40
0.156574286957233
 40
0.3210034174666079
 40
0.5002421534731816
 40
0.7433062199915691
 40
1.0
 40
1.0
 40
1.0
 40
1.0
 10
0.5649680350981396
 20
-0.3379245656015687
 30
0.0
 10
0.5651385427941852
 20
-0.3379396397148962
 30
0.0
 10
0.5654881120254978
 20
-0.3379705441627938
 30
0.0
 10
0.5661770307968315
 20
-0.3382456743616876
 30
0.0
 10
0.5670454075711064
 20
-0.3387158315296089
 30
0.0
 10
0.5681085962853683
 20
-0.339425093263756
 30
0.0
 10
0.5688941932393076
 20
-0.3400791271519201
 30
0.0
 10
0.5692977043658889
 20
-0.3404150627098573
 30
0.0
  0
SPLINE
  5
C5
330
1F
100
AcDbEntity
  8
0
  6
Continuous
 62
     7
370
    25
100
AcDbSpline
210
0.0
220
0.0
230
1.0
 70
     8
 71
     3
 72
    10
 73
     6
 74
     0
 42
0.000000001
 43
0.00000001
 40
0.0
 40
0.0
 40
0.0
 40
0.0
 40
0.2996202819050336
 40
0.6310435881420394
 40
1.0
 40
1.0
 40
1.0
 40
1.0
 10
0.4541992812160514
 20
-0.3379849578715874
 30
0.0
 10
0.4540184531196342
 20
-0.337967463298331
 30
0.0
 10
0.4536376030314008
 20
-0.3379306172002948
 30
0.0
 10
0.4528757074607944
 20
-0.3376199662246254
 30
0.0
 10
0.4522975154194965
 20
-0.3372730397183452
 30
0.0
 10
0.4519929268435988
 20
-0.3370902806297699
 30
0.0
  0
SPLINE
  5
C8
330
1F
100
AcDbEntity
  8
0
  6
Continuous
 62
     7
370
    25
100
AcDbSpline
210
0.0
220
0.0
230
1.0
 70
     8
 71
     3
 72
     9
 73
     5
 74
     0
 42
0.000000001
 43
0.00000001
 40
0.0
 40
0.0
 40
0.0
 40
0.0
 40
0.4897798194403966
 40
1.0
 40
1.0
 40
1.0
 40
1.0
 10
0.449869154165863
 20
0.3375615380681153
 30
0.0
 10
0.4502352614457065
 20
0.3375403946246034
 30
0.0
 10
0.4509827550444869
 20
0.3374972253418508
 30
0.0
 10
0.4516516454567024
 20
0.3372277648238947
 30
0.0
 10
0.4519929268435976
 20
0.3370902806297694
 30
0.0
  0
SPLINE
  5
C9
330
1F
100
AcDbEntity
  8
0
  6
Continuous
 62
     7
370
    25
100
AcDbSpline
210
0.0
220
0.0
230
1.0
 70
     8
 71
     3
 72
     9
 73
     5
 74
     0
 42
0.000000001
 43
0.00000001
 40
0.0
 40
0.0
 40
0.0
 40
0.0
 40
0.5102202768537155
 40
1.0
 40
1.0
 40
1.0
 40
1.0
 10
0.4519929268435988
 20
-0.3370902806297699
 30
0.0
 10
0.4516516453918212
 20
-0.3372277648605803
 30
0.0
 10
0.4509827549786802
 20
-0.3374972253995817
 30
0.0
 10
0.4502352613757565
 20
-0.3375403946176539
 30
0.0
 10
0.449869154165863
 20
-0.3375615380253296
 30
0.0
  0
SPLINE
  5
CE
330
1F
100
AcDbEntity
  8
0
  6
Continuous
 62
     7
370
    25
100
AcDbSpline
210
0.0
220
0.0
230
1.0
 70
    24
 71
     3
 72
    14
 73
    10
 74
     0
 42
0.000000001
 43
0.00000001
 40
0.0
 40
0.0
 40
0.0
 40
0.0
 40
0.25
 40
0.25
 40
0.5
 40
0.5
 40
0.75
 40
0.75
 40
1.0
 40
1.0
 40
1.0
 40
1.0
 10
0.0544679618726505
 20
0.337734441869542
 30
0.0
 10
0.0544679618726504
 20
0.4665215789514675
 30
0.0
 10
0.0544679618726504
 20
0.5893343338025644
 30
0.0
 10
0.0544679618726502
 20
0.8103377305162597
 30
0.0
 10
0.0544679618726502
 20
0.9084881077251648
 30
0.0
 10
0.05446796187265
 20
1.069957842384035
 30
0.0
 10
0.0544679618726499
 20
1.133247781630278
 30
0.0
 10
0.0544679618726498
 20
1.218406760342195
 30
0.0
 10
0.0544679618726497
 20
1.240260284676258
 30
0.0
 10
0.0544679618726497
 20
1.240260284677663
 30
0.0
  0
SPLINE
  5
CF
330
1F
100
AcDbEntity
  8
0
  6
Continuous
 62
     7
370
    25
100
AcDbSpline
210
0.0
220
0.0
230
1.0
 70
     8
 71
     3
 72
     8
 73
     4
 74
     0
 42
0.000000001
 43
0.00000001
 40
0.0
 40
0.0
 40
0.0
 40
0.0
 40
1.0
 40
1.0
 40
1.0
 40
1.0
 10
0.0388836589886614
 20
0.3378161956823264
 30
0.0
 10
0.0440784219768303
 20
0.3378080470007268
 30
0.0
 10
0.0492731849649992
 20
0.3377808008052718
 30
0.0
 10
0.0544679479531681
 20
0.3377344380762043
 30
0.0
  0
SPLINE
  5
D2
330
1F
100
AcDbEntity
  8
0
  6
Continuous
 62
     7
370
    25
100
AcDbSpline
210
0.0
220
0.0
230
1.0
 70
    24
 71
     3
 72
    14
 73
    10
 74
     0
 42
0.000000001
 43
0.00000001
 40
0.0
 40
0.0
 40
0.0
 40
0.0
 40
0.2500000000000001
 40
0.2500000000000001
 40
0.5000000000000001
 40
0.5000000000000001
 40
0.7500000000000001
 40
0.7500000000000001
 40
1.0
 40
1.0
 40
1.0
 40
1.0
 10
0.0544679619238883
 20
-1.240260284728902
 30
0.0
 10
0.0544679619281586
 20
-1.240260284618515
 30
0.0
 10
0.0544679619324289
 20
-1.21840676014434
 30
0.0
 10
0.0544679619409696
 20
-1.133247781106581
 30
0.0
 10
0.0544679619452399
 20
-1.069957841674704
 30
0.0
 10
0.0544679619537806
 20
-0.9084881066263387
 30
0.0
 10
0.0544679619580509
 20
-0.8103377292137208
 30
0.0
 10
0.0544679619665916
 20
-0.5893343321087644
 30
0.0
 10
0.0544679619708619
 20
-0.466521577070298
 30
0.0
 10
0.0544679619751323
 20
-0.3377344398273066
 30
0.0
  0
SPLINE
  5
D4
330
1F
100
AcDbEntity
  8
0
  6
Continuous
 62
     7
370
    25
100
AcDbSpline
210
0.0
220
0.0
230
1.0
 70
     8
 71
     3
 72
     8
 73
     4
 74
     0
 42
0.000000001
 43
0.00000001
 40
0.0
 40
0.0
 40
0.0
 40
0.0
 40
1.0
 40
1.0
 40
1.0
 40
1.0
 10
0.0544679613492606
 20
-0.3377344377756489
 30
0.0
 10
0.0492340130485705
 20
-0.3378407480251344
 30
0.0
 10
0.0440000647478805
 20
-0.3379268340571094
 30
0.0
 10
0.0387661164471904
 20
-0.3379927165042098
 30
0.0
  0
SPLINE
  5
DA
330
1F
100
AcDbEntity
  8
0
  6
Continuous
 62
     7
370
    25
100
AcDbSpline
210
0.0
220
0.0
230
1.0
 70
     8
 71
     3
 72
    20
 73
    16
 74
     0
 42
0.000000001
 43
0.00000001
 40
0.0
 40
0.0
 40
0.0
 40
0.0
 40
0.0628943831993782
 40
0.1255711096067688
 40
0.1881097761870554
 40
0.2505905075202103
 40
0.3130936509513682
 40
0.3756994674808091
 40
0.4384878243078212
 40
0.5015378948690115
 40
0.6025606742197047
 40
0.7025767733615588
 40
0.8019246158293136
 40
0.900949475029378
 40
1.0
 40
1.0
 40
1.0
 40
1.0
 10
0.5681889763779531
 20
0.3373231856498922
 30
0.0
 10
0.5722147785344027
 20
0.3372603245466604
 30
0.0
 10
0.5802524508689919
 20
0.3371348198818178
 30
0.0
 10
0.5922746377697503
 20
0.3364345500380059
 30
0.0
 10
0.6042373985082132
 20
0.3353587837453341
 30
0.0
 10
0.6161404338756525
 20
0.3338706881052508
 30
0.0
 10
0.6279837548425373
 20
0.3319793699914417
 30
0.0
 10
0.6397672624896308
 20
0.329681492710107
 30
0.0
 10
0.6514909978754043
 20
0.3269767430614124
 30
0.0
 10
0.6654741607381542
 20
0.3232452722325049
 30
0.0
 10
0.6815327297014315
 20
0.3181925514605821
 30
0.0
 10
0.6994224941957564
 20
0.3114435836365906
 30
0.0
 10
0.7167381952986025
 20
0.3037213790255743
 30
0.0
 10
0.7335355515045289
 20
0.2951048987220355
 30
0.0
 10
0.7442331598581986
 20
0.2885573834509911
 30
0.0
 10
0.7495826571104571
 20
0.2852832016158003
 30
0.0
  0
SPLINE
  5
DB
330
1F
100
AcDbEntity
  8
0
  6
Continuous
 62
     7
370
    25
100
AcDbSpline
210
0.0
220
0.0
230
1.0
 70
     8
 71
     3
 72
    13
 73
     9
 74
     0
 42
0.000000001
 43
0.00000001
 40
0.0
 40
0.0
 40
0.0
 40
0.0
 40
0.257133694015412
 40
0.4975007584514329
 40
0.7452327759749713
 40
0.8591262561844367
 40
0.9414247993209884
 40
1.0
 40
1.0
 40
1.0
 40
1.0
 10
0.7495754951155469
 20
0.2852756036579142
 30
0.0
 10
0.7499890704355368
 20
0.2850314208482398
 30
0.0
 10
0.7507892535315701
 20
0.2845589773846207
 30
0.0
 10
0.752077501937972
 20
0.2843261254874647
 30
0.0
 10
0.7530054811014707
 20
0.2845344426855628
 30
0.0
 10
0.7535424301055599
 20
0.284872994614254
 30
0.0
 10
0.7538315674078625
 20
0.2851183137762547
 30
0.0
 10
0.7538546780386358
 20
0.285339601675329
 30
0.0
 10
0.7538642874221781
 20
0.2854316130235408
 30
0.0
  0
SPLINE
  5
DD
330
1F
100
AcDbEntity
  8
0
  6
Continuous
 62
     7
370
    25
100
AcDbSpline
210
0.0
220
0.0
230
1.0
 70
     8
 71
     3
 72
    12
 73
     8
 74
     0
 42
0.000000001
 43
0.00000001
 40
0.0
 40
0.0
 40
0.0
 40
0.0
 40
0.5000000000000001
 40
0.5000000000000001
 40
0.75
 40
0.75
 40
1.0
 40
1.0
 40
1.0
 40
1.0
 10
0.568189907235765
 20
0.3224999984497931
 30
0.0
 10
0.6029102296731995
 20
0.3225033906644271
 30
0.0
 10
0.6366562917364321
 20
0.3170780812217003
 30
0.0
 10
0.6858361192587981
 20
0.3009485065803464
 30
0.0
 10
0.701672421022297
 20
0.2943065085864807
 30
0.0
 10
0.7319231194727648
 20
0.2787452909866471
 30
0.0
 10
0.7463975176621247
 20
0.2698062028280579
 30
0.0
 10
0.7602058608584497
 20
0.2596875854767727
 30
0.0
  0
SPLINE
  5
DF
330
1F
100
AcDbEntity
  8
0
  6
Continuous
 62
     7
370
    25
100
AcDbSpline
210
0.0
220
0.0
230
1.0
 70
     8
 71
     3
 72
     9
 73
     5
 74
     0
 42
0.000000001
 43
0.00000001
 40
0.0
 40
0.0
 40
0.0
 40
0.0
 40
0.4998846401069306
 40
1.0
 40
1.0
 40
1.0
 40
1.0
 10
0.7688456547112421
 20
-0.2531285577673273
 30
0.0
 10
0.7661685437756041
 20
-0.2551988114643134
 30
0.0
 10
0.7608130862943229
 20
-0.2593402743757227
 30
0.0
 10
0.7552648570950111
 20
-0.2632268758341904
 30
0.0
 10
0.7524901024522281
 20
-0.2651706249213529
 30
0.0
  0
SPLINE
  5
E0
330
1F
100
AcDbEntity
  8
0
  6
Continuous
 62
     7
370
    25
100
AcDbSpline
210
0.0
220
0.0
230
1.0
 70
     8
 71
     3
 72
    21
 73
    17
 74
     0
 42
0.000000001
 43
0.00000001
 40
0.0
 40
0.0
 40
0.0
 40
0.0
 40
0.0561363763979888
 40
0.1119560146738402
 40
0.1675203385466431
 40
0.2228916215023681
 40
0.2781327899664507
 40
0.3333072156366608
 40
0.3884785002789693
 40
0.4437102565830834
 40
0.4990658888304977
 40
0.600012865421817
 40
0.7001767220629121
 40
0.7999586874895364
 40
0.8997645979564382
 40
1.0
 40
1.0
 40
1.0
 40
1.0
 10
0.7524901024522284
 20
-0.265170624921353
 30
0.0
 10
0.7494699422489046
 20
-0.2672092984675834
 30
0.0
 10
0.7434466624838649
 20
-0.2712751427579021
 30
0.0
 10
0.7341776657726659
 20
-0.2769796929415673
 30
0.0
 10
0.724774044770684
 20
-0.2823711163795104
 30
0.0
 10
0.7152170520917532
 20
-0.2874243007060271
 30
0.0
 10
0.7055117201725176
 20
-0.2921475083200147
 30
0.0
 10
0.6956567391481119
 20
-0.2965400579741182
 30
0.0
 10
0.6856525469841581
 20
-0.3006036195178554
 30
0.0
 10
0.675498925992121
 20
-0.3043390859916041
 30
0.0
 10
0.6623808415773798
 20
-0.308679419245057
 30
0.0
 10
0.6462241871130857
 20
-0.3132081366822754
 30
0.0
 10
0.6269566152388087
 20
-0.3173711928294649
 30
0.0
 10
0.6075237841622544
 20
-0.3203191090098326
 30
0.0
 10
0.5879269460588475
 20
-0.3221612947500382
 30
0.0
 10
0.5747994708919155
 20
-0.322386936764462
 30
0.0
 10
0.5682216408694021
 20
-0.3224999999999999
 30
0.0
  0
SPLINE
  5
E3
330
1F
100
AcDbEntity
  8
0
  6
Continuous
 62
     7
370
    25
100
AcDbSpline
210
0.0
220
0.0
230
1.0
 70
     8
 71
     3
 72
    18
 73
    14
 74
     0
 42
0.000000001
 43
0.00000001
 40
0.0
 40
0.0
 40
0.0
 40
0.0
 40
0.2500000000000001
 40
0.2500000000000001
 40
0.3750000000000002
 40
0.3750000000000002
 40
0.5000000000000001
 40
0.5000000000000001
 40
0.6250000000000001
 40
0.6250000000000001
 40
0.7500000000000001
 40
0.7500000000000001
 40
1.0
 40
1.0
 40
1.0
 40
1.0
 10
0.038740157480315
 20
0.2246953958093479
 30
0.0
 10
0.038740157480315
 20
0.1872440775151736
 30
0.0
 10
0.0348898288327125
 20
0.1499839158165157
 30
0.0
 10
0.0283805359262624
 20
0.0940960837205064
 30
0.0
 10
0.0260331038731595
 20
0.0754725369939657
 30
0.0
 10
0.0222011225374666
 20
0.0381976114247333
 30
0.0
 10
0.0207895003131019
 20
0.0195438803339367
 30
0.0
 10
0.0207126197857415
 20
-0.017852165282452
 30
0.0
 10
0.0220634031949413
 20
-0.0365949972303549
 30
0.0
 10
0.02586867488754
 20
-0.0741162609125025
 30
0.0
 10
0.0282343962485087
 20
-0.0928884738650526
 30
0.0
 10
0.0348100481366213
 20
-0.1492086137025967
 30
0.0
 10
0.0387401574803149
 20
-0.1867922541190085
 30
0.0
 10
0.038740157480315
 20
-0.2246953958093488
 30
0.0
  0
SPLINE
  5
EE
330
1F
100
AcDbEntity
  8
0
  6
Continuous
 62
     7
370
    25
100
AcDbSpline
210
0.0
220
0.0
230
1.0
 70
     8
 71
     3
 72
    17
 73
    13
 74
     0
 42
0.000000001
 43
0.00000001
 40
0.0
 40
0.0
 40
0.0
 40
0.0
 40
0.0828030891442277
 40
0.1661997084882594
 40
0.2492151298199343
 40
0.3745274855838818
 40
0.498742444531299
 40
0.6238434442442878
 40
0.7492786941511801
 40
0.8751817699268969
 40
0.9998887561108609
 40
0.9999999999999999
 40
0.9999999999999999
 40
0.9999999999999999
 40
0.9999999999999999
 10
2.46245350341797
 20
-0.7772542234286598
 30
0.0
 10
2.467796504643786
 20
-0.7772843687769837
 30
0.0
 10
2.478520805577008
 20
-0.7773448755546352
 30
0.0
 10
2.494310511604126
 20
-0.7778673212476781
 30
0.0
 10
2.512097929644749
 20
-0.7787947040348409
 30
0.0
 10
2.531110491502349
 20
-0.7802274952994387
 30
0.0
 10
2.549827945447917
 20
-0.7821392685557378
 30
0.0
 10
2.565067808733933
 20
-0.7840461871706403
 30
0.0
 10
2.576608281647896
 20
-0.7856851716705254
 30
0.0
 10
2.583298598682159
 20
-0.7866903767874674
 30
0.0
 10
2.586038958018728
 20
-0.7871217477362961
 30
0.0
 10
2.585248192572715
 20
-0.7869997825739432
 30
0.0
 10
2.585247487805283
 20
-0.7869996738728428
 30
0.0
  0
SPLINE
  5
F0
330
1F
100
AcDbEntity
  8
0
  6
Continuous
 62
     7
370
    25
100
AcDbSpline
210
0.0
220
0.0
230
1.0
 70
     8
 71
     3
 72
    16
 73
    12
 74
     0
 42
0.000000001
 43
0.00000001
 40
0.0
 40
0.0
 40
0.0
 40
0.0
 40
0.124573190911433
 40
0.2505155630724329
 40
0.3759426799130446
 40
0.5010651702133583
 40
0.6244346578339199
 40
0.7504382895794206
 40
0.8354881053102763
 40
0.9151783592518932
 40
1.0
 40
1.0
 40
1.0
 40
1.0
 10
2.106659519030647
 20
-0.7869996738728431
 30
0.0
 10
2.107115882870067
 20
-0.7869275623332415
 30
0.0
 10
2.108033626434004
 20
-0.7867825466776647
 30
0.0
 10
2.115458388716276
 20
-0.785663574845248
 30
0.0
 10
2.126792552783328
 20
-0.7840562758731314
 30
0.0
 10
2.142027452854575
 20
-0.782144910088837
 30
0.0
 10
2.160709173349583
 20
-0.780233786681404
 30
0.0
 10
2.17982151352917
 20
-0.77879778247325
 30
0.0
 10
2.197504706957372
 20
-0.7778420587016623
 30
0.0
 10
2.213395045165688
 20
-0.7773890380128712
 30
0.0
 10
2.22399052077325
 20
-0.7773000864699451
 30
0.0
 10
2.229453503417969
 20
-0.7772542234286598
 30
0.0
  0
SPLINE
  5
F2
330
1F
100
AcDbEntity
  8
0
  6
Continuous
 62
     7
370
    25
100
AcDbSpline
210
0.0
220
0.0
230
1.0
 70
     8
 71
     3
 72
    26
 73
    22
 74
     0
 42
0.000000001
 43
0.00000001
 40
0.0
 40
0.0
 40
0.0
 40
0.0
 40
0.0207979628780441
 40
0.0356425810025937
 40
0.0712582369308141
 40
0.1424434663109992
 40
0.1961127491134491
 40
0.2493791929661113
 40
0.3119362520551913
 40
0.3746604537664182
 40
0.4376185929303743
 40
0.4999786246071528
 40
0.5623235335215163
 40
0.6252974348183246
 40
0.6880136973381604
 40
0.7505776400203532
 40
0.8122650435731353
 40
0.8752695759708525
 40
0.9376197941425595
 40
0.9687461612593707
 40
1.0
 40
1.0
 40
1.0
 40
1.0
 10
2.229453503417969
 20
-0.4955553779573248
 30
0.0
 10
2.226774326047326
 20
-0.4954738095049243
 30
0.0
 10
2.2221828765379
 20
-0.4953340212867711
 30
0.0
 10
2.21301307405108
 20
-0.4948519139976455
 30
0.0
 10
2.197529792527023
 20
-0.4926962782050565
 30
0.0
 10
2.177908137432797
 20
-0.4871525010170801
 30
0.0
 10
2.158061581665282
 20
-0.4778762843105229
 30
0.0
 10
2.141367936212754
 20
-0.4664757231362858
 30
0.0
 10
2.12681196920938
 20
-0.4518532411586187
 30
0.0
 10
2.115397820361096
 20
-0.4340264607911633
 30
0.0
 10
2.108239370688633
 20
-0.4143841169477829
 30
0.0
 10
2.105868742483082
 20
-0.3935827303145573
 30
0.0
 10
2.108245617684989
 20
-0.3724033838935642
 30
0.0
 10
2.115400895588158
 20
-0.3516845411467994
 30
0.0
 10
2.126808319301567
 20
-0.3322337841795977
 30
0.0
 10
2.142021734312106
 20
-0.3149985111520663
 30
0.0
 10
2.160716527113775
 20
-0.3006837874459491
 30
0.0
 10
2.182063151425845
 20
-0.2900412753915592
 30
0.0
 10
2.201405934883354
 20
-0.2841357220053116
 30
0.0
 10
2.217401004611358
 20
-0.2823216880229247
 30
0.0
 10
2.225430534467513
 20
-0.2819067422972342
 30
0.0
 10
2.229453503417965
 20
-0.2816988454713326
 30
0.0
  0
SPLINE
  5
F4
330
1F
100
AcDbEntity
  8
0
  6
Continuous
 62
     7
370
    25
100
AcDbSpline
210
0.0
220
0.0
230
1.0
 70
     8
 71
     3
 72
    26
 73
    22
 74
     0
 42
0.000000001
 43
0.00000001
 40
0.0
 40
0.0
 40
0.0
 40
0.0
 40
0.0207979628805964
 40
0.0356425810025164
 40
0.0712582369306812
 40
0.1424434663107195
 40
0.1961127491194571
 40
0.2493791929658551
 40
0.3119362520547894
 40
0.3746604537659901
 40
0.4376185928971945
 40
0.4999786246069234
 40
0.5623235335209745
 40
0.6252974348187608
 40
0.6880136973385452
 40
0.7505776400206069
 40
0.8122650435730867
 40
0.8752695759710668
 40
0.9376197941426966
 40
0.9687461612594807
 40
0.9999999999999999
 40
0.9999999999999999
 40
0.9999999999999999
 40
0.9999999999999999
 10
2.46245350341797
 20
-0.2816988454713326
 30
0.0
 10
2.465132680788946
 20
-0.2817968753978911
 30
0.0
 10
2.469724130298371
 20
-0.2819648745244447
 30
0.0
 10
2.478893932785179
 20
-0.2825439678305283
 30
0.0
 10
2.494377214308974
 20
-0.2851303877572465
 30
0.0
 10
2.513998869403681
 20
-0.2917434943432829
 30
0.0
 10
2.533845425171568
 20
-0.3026231825224185
 30
0.0
 10
2.550539070623528
 20
-0.3157528873075147
 30
0.0
 10
2.565095037626771
 20
-0.3321969842949312
 30
0.0
 10
2.576509186472396
 20
-0.3516434252795776
 30
0.0
 10
2.583667636147982
 20
-0.3723633473410106
 30
0.0
 10
2.586038264352129
 20
-0.3935425719438081
 30
0.0
 10
2.583661389153961
 20
-0.414345474781941
 30
0.0
 10
2.576506111247038
 20
-0.4339881414668182
 30
0.0
 10
2.565098687534678
 20
-0.4518200819161925
 30
0.0
 10
2.549885272523746
 20
-0.4671469562647304
 30
0.0
 10
2.531190479722433
 20
-0.4795501327279194
 30
0.0
 10
2.509843855410136
 20
-0.4885851450408578
 30
0.0
 10
2.490501071952532
 20
-0.4935257022398475
 30
0.0
 10
2.474506002224554
 20
-0.4950370492568503
 30
0.0
 10
2.466476472368411
 20
-0.4953823665095251
 30
0.0
 10
2.46245350341797
 20
-0.4955553779573248
 30
0.0
  0
SPLINE
  5
F6
330
1F
100
AcDbEntity
  8
0
  6
Continuous
 62
     7
370
    25
100
AcDbSpline
210
0.0
220
0.0
230
1.0
 70
     8
 71
     3
 72
    26
 73
    22
 74
     0
 42
0.000000001
 43
0.00000001
 40
0.0
 40
0.0
 40
0.0
 40
0.0
 40
0.020797962880059
 40
0.0356425810025806
 40
0.071258236930787
 40
0.1424434663109323
 40
0.1961127491153369
 40
0.2493791929661483
 40
0.3119362520551854
 40
0.3746604537664268
 40
0.4376185929342185
 40
0.4999786246069628
 40
0.5623235335150936
 40
0.6252974348178507
 40
0.6880136973376625
 40
0.7505776400198338
 40
0.8122650435699094
 40
0.8752695759708914
 40
0.9376197941425757
 40
0.968746161259377
 40
1.0
 40
1.0
 40
1.0
 40
1.0
 10
2.229453503417969
 20
0.2816988454713349
 30
0.0
 10
2.226774326047066
 20
0.2817968753979
 30
0.0
 10
2.222182876537638
 20
0.2819648745244693
 30
0.0
 10
2.213013074050825
 20
0.2825439678305682
 30
0.0
 10
2.197529792527001
 20
0.2851303877574816
 30
0.0
 10
2.177908137432672
 20
0.2917434943429607
 30
0.0
 10
2.158061581664872
 20
0.3026231825221999
 30
0.0
 10
2.141367936212674
 20
0.3157528873070957
 30
0.0
 10
2.12681196920935
 20
0.3321969842950266
 30
0.0
 10
2.115397820360728
 20
0.3516434252832474
 30
0.0
 10
2.108239370689102
 20
0.3723633473456009
 30
0.0
 10
2.105868742482867
 20
0.3935425719473148
 30
0.0
 10
2.108245617685662
 20
0.4143454747807738
 30
0.0
 10
2.115400895587602
 20
0.43398814146659
 30
0.0
 10
2.126808319301545
 20
0.451820081916212
 30
0.0
 10
2.142021734312218
 20
0.4671469562642889
 30
0.0
 10
2.160716527112288
 20
0.4795501327289292
 30
0.0
 10
2.182063151425731
 20
0.4885851450403902
 30
0.0
 10
2.201405934883324
 20
0.4935257022401019
 30
0.0
 10
2.217401004611367
 20
0.4950370492569682
 30
0.0
 10
2.225430534467518
 20
0.4953823665095662
 30
0.0
 10
2.229453503417969
 20
0.4955553779573277
 30
0.0
  0
SPLINE
  5
F8
330
1F
100
AcDbEntity
  8
0
  6
Continuous
 62
     7
370
    25
100
AcDbSpline
210
0.0
220
0.0
230
1.0
 70
     8
 71
     3
 72
    26
 73
    22
 74
     0
 42
0.000000001
 43
0.00000001
 40
0.0
 40
0.0
 40
0.0
 40
0.0
 40
0.0207979628794405
 40
0.0356425810025609
 40
0.0712582369307638
 40
0.1424434663109118
 40
0.1961127491121869
 40
0.2493791929661184
 40
0.3119362520551567
 40
0.374660453766378
 40
0.4376185929296401
 40
0.4999786246070883
 40
0.562323533520015
 40
0.6252974348181509
 40
0.6880136973380279
 40
0.7505776400201549
 40
0.8122650435552168
 40
0.8752695759709292
 40
0.9376197941426232
 40
0.9687461612594398
 40
1.0
 40
1.0
 40
1.0
 40
1.0
 10
2.46245350341797
 20
0.4955553779573277
 30
0.0
 10
2.465132680788793
 20
0.4954738095049215
 30
0.0
 10
2.469724130298216
 20
0.4953340212867679
 30
0.0
 10
2.478893932785027
 20
0.4948519139975843
 30
0.0
 10
2.4943772143089
 20
0.4926962782050301
 30
0.0
 10
2.513998869402908
 20
0.4871525010170172
 30
0.0
 10
2.533845425170762
 20
0.4778762843108719
 30
0.0
 10
2.550539070622978
 20
0.466475723136305
 30
0.0
 10
2.565095037626598
 20
0.4518532411586639
 30
0.0
 10
2.576509186474756
 20
0.4340264607912234
 30
0.0
 10
2.58366763614736
 20
0.4143841169478951
 30
0.0
 10
2.586038264352861
 20
0.3935827303148047
 30
0.0
 10
2.583661389150816
 20
0.3724033838937782
 30
0.0
 10
2.576506111247879
 20
0.3516845411469742
 30
0.0
 10
2.565098687534495
 20
0.3322337841795351
 30
0.0
 10
2.549885272525135
 20
0.3149985111538919
 30
0.0
 10
2.531190479724618
 20
0.3006837874466057
 30
0.0
 10
2.509843855412229
 20
0.2900412753923501
 30
0.0
 10
2.490501071952554
 20
0.284135722005474
 30
0.0
 10
2.474506002224558
 20
0.2823216880230441
 30
0.0
 10
2.466476472368416
 20
0.2819067422972754
 30
0.0
 10
2.462453503417974
 20
0.2816988454713349
 30
0.0
  0
SPLINE
  5
F9
330
1F
100
AcDbEntity
  8
0
  6
Continuous
 62
     7
370
    25
100
AcDbSpline
210
0.0
220
0.0
230
1.0
 70
     8
 71
     3
 72
    17
 73
    13
 74
     0
 42
0.000000001
 43
0.00000001
 40
0.0
 40
0.0
 40
0.0
 40
0.0
 40
0.0828034984256825
 40
0.1661992527274823
 40
0.2492144587781434
 40
0.3744999675295066
 40
0.4987436940940885
 40
0.6235856142361682
 40
0.7493167385711214
 40
0.8749098035359343
 40
0.9998897045720309
 40
1.0
 40
1.0
 40
1.0
 40
1.0
 10
2.229453503417969
 20
0.7772542234286599
 30
0.0
 10
2.224110485997488
 20
0.7772843693513735
 30
0.0
 10
2.213386234975765
 20
0.7773448768169157
 30
0.0
 10
2.197596451608635
 20
0.7778673149296313
 30
0.0
 10
2.179811294842661
 20
0.7787946290432989
 30
0.0
 10
2.160795236854353
 20
0.7802272131594223
 30
0.0
 10
2.142104637071765
 20
0.7821386674473491
 30
0.0
 10
2.126802529424042
 20
0.7840418344825838
 30
0.0
 10
2.115308869990153
 20
0.7856836579276122
 30
0.0
 10
2.10867874688934
 20
0.7866900050197843
 30
0.0
 10
2.105850677911536
 20
0.7871222707195973
 30
0.0
 10
2.106658857737872
 20
0.786999783976877
 30
0.0
 10
2.106659570332003
 20
0.786999675976985
 30
0.0
  0
SPLINE
  5
FB
330
1F
100
AcDbEntity
  8
0
  6
Continuous
 62
     7
370
    25
100
AcDbSpline
210
0.0
220
0.0
230
1.0
 70
     8
 71
     3
 72
    16
 73
    12
 74
     0
 42
0.000000001
 43
0.00000001
 40
0.0
 40
0.0
 40
0.0
 40
0.0
 40
0.124883211051018
 40
0.2504735593329399
 40
0.3761604656388682
 40
0.501061390509988
 40
0.624466857220007
 40
0.7504351927736878
 40
0.8354892314913289
 40
0.9151777942102722
 40
1.0
 40
1.0
 40
1.0
 40
1.0
 10
2.585247436503931
 20
0.7869996759769852
 30
0.0
 10
2.584768458887408
 20
0.7869272713004218
 30
0.0
 10
2.583807791497121
 20
0.7867820519639036
 30
0.0
 10
2.576435707641424
 20
0.7856619078524463
 30
0.0
 10
2.565153899754447
 20
0.7840520681935763
 30
0.0
 10
2.549855303655283
 20
0.7821444666853725
 30
0.0
 10
2.53119857233423
 20
0.7802335654762262
 30
0.0
 10
2.512082904567486
 20
0.7787976774959957
 30
0.0
 10
2.494402266096032
 20
0.7778421037215467
 30
0.0
 10
2.47851186340283
 20
0.7773889564909695
 30
0.0
 10
2.467916501319126
 20
0.7773000591452156
 30
0.0
 10
2.46245350341797
 20
0.7772542234286599
 30
0.0
  0
SPLINE
  5
FE
330
1F
100
AcDbEntity
  8
0
  6
Continuous
 62
     7
370
    25
100
AcDbSpline
210
0.0
220
0.0
230
1.0
 70
     8
 71
     3
 72
    25
 73
    21
 74
     0
 42
0.000000001
 43
0.00000001
 40
0.0
 40
0.0
 40
0.0
 40
0.0
 40
0.0196233958960843
 40
0.0365970545847813
 40
0.0509208489241641
 40
0.0625948105737553
 40
0.0924930490275512
 40
0.1251080742952158
 40
0.1759606063354089
 40
0.2503469898856341
 40
0.3754766590940988
 40
0.5002410313549832
 40
0.6250143544640914
 40
0.7501391765636954
 40
0.8125913899925602
 40
0.8750264632717707
 40
0.9078520998818778
 40
0.9375386797786264
 40
0.9652778320586534
 40
1.0
 40
1.0
 40
1.0
 40
1.0
 10
2.229453503417969
 20
0.2838816413766911
 30
0.0
 10
2.227023449340303
 20
0.283935679372441
 30
0.0
 10
2.222491470156106
 20
0.2840364586407479
 30
0.0
 10
2.216208618352666
 20
0.2845892747475646
 30
0.0
 10
2.210936841686132
 20
0.2852702644812213
 30
0.0
 10
2.204125889070141
 20
0.2864211573324471
 30
0.0
 10
2.195201481526657
 20
0.2885173419832333
 30
0.0
 10
2.181969124365542
 20
0.2929535772137116
 30
0.0
 10
2.164523072359059
 20
0.3013381086563212
 30
0.0
 10
2.140036208246959
 20
0.3192311289486779
 30
0.0
 10
2.117119056046286
 20
0.3503869547461632
 30
0.0
 10
2.107858681377255
 20
0.3917467852643665
 30
0.0
 10
2.117185230345519
 20
0.4312109261660884
 30
0.0
 10
2.13933304647769
 20
0.4582263114658291
 30
0.0
 10
2.163361239382966
 20
0.4739567497693773
 30
0.0
 10
2.180683304363392
 20
0.4813148795888221
 30
0.0
 10
2.195269743581777
 20
0.4853853831565051
 30
0.0
 10
2.206125024142718
 20
0.4874519156428425
 30
0.0
 10
2.21741340856765
 20
0.4888616725792954
 30
0.0
 10
2.225151762419308
 20
0.4890339135426147
 30
0.0
 10
2.229453503417969
 20
0.4891296620736024
 30
0.0
  0
SPLINE
  5
100
330
1F
100
AcDbEntity
  8
0
  6
Continuous
 62
     7
370
    25
100
AcDbSpline
210
0.0
220
0.0
230
1.0
 70
     8
 71
     3
 72
    14
 73
    10
 74
     0
 42
0.000000001
 43
0.00000001
 40
0.0
 40
0.0
 40
0.0
 40
0.0
 40
0.1528343871346328
 40
0.3056687742692662
 40
0.4585031614039002
 40
0.611337548538533
 40
0.7641719356731669
 40
0.9170063228077994
 40
1.0
 40
1.0
 40
1.0
 40
1.0
 10
2.229453503417969
 20
0.4361240103484565
 30
0.0
 10
2.221697972313086
 20
0.4357420187325485
 30
0.0
 10
2.206186910103318
 20
0.4349780355007321
 30
0.0
 10
2.183810657723106
 20
0.4288765602429043
 30
0.0
 10
2.163203559100493
 20
0.4193890597586433
 30
0.0
 10
2.145085690705801
 20
0.4065396773067048
 30
0.0
 10
2.130421777160483
 20
0.3908490327942505
 30
0.0
 10
2.120547657091324
 20
0.3758487413564126
 30
0.0
 10
2.117414560376582
 20
0.3658404839768778
 30
0.0
 10
2.116311946834392
 20
0.3623183328512917
 30
0.0
  0
SPLINE
  5
101
330
1F
100
AcDbEntity
  8
0
  6
Continuous
 62
     7
370
    25
100
AcDbSpline
210
0.0
220
0.0
230
1.0
 70
     8
 71
     3
 72
    14
 73
    10
 74
     0
 42
0.000000001
 43
0.00000001
 40
0.0
 40
0.0
 40
0.0
 40
0.0
 40
0.0874719930976941
 40
0.2395599942480788
 40
0.3916479953984615
 40
0.5437359965488482
 40
0.6958239976992315
 40
0.8479119988496143
 40
1.0
 40
1.0
 40
1.0
 40
1.0
 10
2.575811591922883
 20
0.3617001551861291
 30
0.0
 10
2.574648219299493
 20
0.3654319871252706
 30
0.0
 10
2.571462084754044
 20
0.3756523743168261
 30
0.0
 10
2.56149239655045
 20
0.3908513059578895
 30
0.0
 10
2.546819395819134
 20
0.4065390682293668
 30
0.0
 10
2.528703962104465
 20
0.4193892229043591
 30
0.0
 10
2.50809621194776
 20
0.4288765167373808
 30
0.0
 10
2.485720131023889
 20
0.4349780463771137
 30
0.0
 10
2.470209045953276
 20
0.4357420223580092
 30
0.0
 10
2.46245350341797
 20
0.4361240103484569
 30
0.0
  0
SPLINE
  5
103
330
1F
100
AcDbEntity
  8
0
  6
Continuous
 62
     7
370
    25
100
AcDbSpline
210
0.0
220
0.0
230
1.0
 70
     8
 71
     3
 72
    25
 73
    21
 74
     0
 42
0.000000001
 43
0.00000001
 40
0.0
 40
0.0
 40
0.0
 40
0.0
 40
0.0196233958859302
 40
0.0365970545712474
 40
0.050920848914026
 40
0.062594810573791
 40
0.092493049004061
 40
0.1251080742952585
 40
0.1759606062276906
 40
0.2503469898853161
 40
0.3754766590937917
 40
0.5002410313547354
 40
0.6250143544638398
 40
0.7501391765636034
 40
0.812591389992502
 40
0.8750264632717442
 40
0.9078520998789802
 40
0.937538679778616
 40
0.9652778320521509
 40
1.0
 40
1.0
 40
1.0
 40
1.0
 10
2.46245350341797
 20
0.4891296620736024
 30
0.0
 10
2.464883557494376
 20
0.4891097629364822
 30
0.0
 10
2.469415536676895
 20
0.4890726516326416
 30
0.0
 10
2.475698388479101
 20
0.48862804615125
 30
0.0
 10
2.480970165146911
 20
0.4880559070653516
 30
0.0
 10
2.487781117761712
 20
0.4870835677364727
 30
0.0
 10
2.496705525306465
 20
0.4853476851879764
 30
0.0
 10
2.509937882455245
 20
0.4816510851752864
 30
0.0
 10
2.527383934465355
 20
0.4746206679335486
 30
0.0
 10
2.551870798581553
 20
0.4591117839362647
 30
0.0
 10
2.574787950789587
 20
0.431079392349873
 30
0.0
 10
2.584048325458696
 20
0.3915820459391351
 30
0.0
 10
2.574721776490432
 20
0.3502268491307696
 30
0.0
 10
2.552573960358265
 20
0.320263105241766
 30
0.0
 10
2.528545767452961
 20
0.3020241824704056
 30
0.0
 10
2.511223702472855
 20
0.2933949201826815
 30
0.0
 10
2.49663726325449
 20
0.2885136344537483
 30
0.0
 10
2.485781982694348
 20
0.2859595096877125
 30
0.0
 10
2.474493598269094
 20
0.2842599908857911
 30
0.0
 10
2.466755244417437
 20
0.2840168198462587
 30
0.0
 10
2.46245350341797
 20
0.2838816413766911
 30
0.0
  0
SPLINE
  5
107
330
1F
100
AcDbEntity
  8
0
  6
Continuous
 62
     7
370
    25
100
AcDbSpline
210
0.0
220
0.0
230
1.0
 70
     8
 71
     3
 72
    25
 73
    21
 74
     0
 42
0.000000001
 43
0.00000001
 40
0.0
 40
0.0
 40
0.0
 40
0.0
 40
0.0196233958773001
 40
0.0365970545597408
 40
0.0509208489053983
 40
0.0625948105737974
 40
0.0924930489630448
 40
0.12510807429526
 40
0.1759606062023354
 40
0.250346989885243
 40
0.3754766590937331
 40
0.5002410313546873
 40
0.6250143544638052
 40
0.7501391765635752
 40
0.8125913899924795
 40
0.8750264632717278
 40
0.9078520998847202
 40
0.9375386797786068
 40
0.9652778320579302
 40
1.0
 40
1.0
 40
1.0
 40
1.0
 10
2.46245350341797
 20
-0.2838816413766901
 30
0.0
 10
2.464883557493308
 20
-0.2839356793723556
 30
0.0
 10
2.469415536674401
 20
-0.2840364586405332
 30
0.0
 10
2.475698388475556
 20
-0.2845892747467598
 30
0.0
 10
2.480970165144449
 20
-0.2852702644804155
 30
0.0
 10
2.487781117755677
 20
-0.2864211573305326
 30
0.0
 10
2.496705525301551
 20
-0.2885173419811603
 30
0.0
 10
2.509937882447768
 20
-0.292953577204993
 30
0.0
 10
2.527383934462677
 20
-0.3013381086475901
 30
0.0
 10
2.551870798579788
 20
-0.3192311289359845
 30
0.0
 10
2.57478795078958
 20
-0.3503869547461321
 30
0.0
 10
2.584048325458699
 20
-0.3917467852643666
 30
0.0
 10
2.574721776490429
 20
-0.4312109261659629
 30
0.0
 10
2.552573960358266
 20
-0.4582263114657905
 30
0.0
 10
2.528545767452962
 20
-0.4739567497694584
 30
0.0
 10
2.511223702472223
 20
-0.4813148795890195
 30
0.0
 10
2.496637263253807
 20
-0.4853853831566747
 30
0.0
 10
2.485781982692949
 20
-0.4874519156429053
 30
0.0
 10
2.474493598268374
 20
-0.4888616725792969
 30
0.0
 10
2.466755244416718
 20
-0.4890339135426139
 30
0.0
 10
2.46245350341797
 20
-0.4891296620736025
 30
0.0
  0
SPLINE
  5
10A
330
1F
100
AcDbEntity
  8
0
  6
Continuous
 62
     7
370
    25
100
AcDbSpline
210
0.0
220
0.0
230
1.0
 70
     8
 71
     3
 72
    14
 73
    10
 74
     0
 42
0.000000001
 43
0.00000001
 40
0.0
 40
0.0
 40
0.0
 40
0.0
 40
0.152834387135095
 40
0.3056687742701871
 40
0.4585031614052797
 40
0.6113375485403756
 40
0.7641719356754677
 40
0.917006322810562
 40
1.0
 40
1.0
 40
1.0
 40
1.0
 10
2.46245350341797
 20
-0.436124010348456
 30
0.0
 10
2.470209034522854
 20
-0.435742018732548
 30
0.0
 10
2.485720096732621
 20
-0.4349780355007318
 30
0.0
 10
2.508096349112833
 20
-0.4288765602429039
 30
0.0
 10
2.528703447735445
 20
-0.4193890597586424
 30
0.0
 10
2.546821316130139
 20
-0.406539677306705
 30
0.0
 10
2.56148522967545
 20
-0.3908490327942484
 30
0.0
 10
2.571359349744554
 20
-0.3758487413565325
 30
0.0
 10
2.574492446459261
 20
-0.365840483977128
 30
0.0
 10
2.575595060001414
 20
-0.3623183328516706
 30
0.0
  0
SPLINE
  5
10B
330
1F
100
AcDbEntity
  8
0
  6
Continuous
 62
     7
370
    25
100
AcDbSpline
210
0.0
220
0.0
230
1.0
 70
     8
 71
     3
 72
    14
 73
    10
 74
     0
 42
0.000000001
 43
0.00000001
 40
0.0
 40
0.0
 40
0.0
 40
0.0
 40
0.0874719930992016
 40
0.2395599942493341
 40
0.3916479953994682
 40
0.5437359965496005
 40
0.6958239976997341
 40
0.8479119988498673
 40
0.9999999999999999
 40
0.9999999999999999
 40
0.9999999999999999
 40
0.9999999999999999
 10
2.116095414912983
 20
-0.3617001551859194
 30
0.0
 10
2.117258787536394
 20
-0.3654319871251318
 30
0.0
 10
2.120444922081861
 20
-0.375652374316759
 30
0.0
 10
2.130414610285486
 20
-0.3908513059578897
 30
0.0
 10
2.145087611016806
 20
-0.4065390682293658
 30
0.0
 10
2.163203044731473
 20
-0.4193892229043587
 30
0.0
 10
2.183810794888178
 20
-0.4288765167373799
 30
0.0
 10
2.20618687581205
 20
-0.4349780463771131
 30
0.0
 10
2.221697960882663
 20
-0.4357420223580086
 30
0.0
 10
2.229453503417969
 20
-0.4361240103484563
 30
0.0
  0
SPLINE
  5
10D
330
1F
100
AcDbEntity
  8
0
  6
Continuous
 62
     7
370
    25
100
AcDbSpline
210
0.0
220
0.0
230
1.0
 70
     8
 71
     3
 72
    25
 73
    21
 74
     0
 42
0.000000001
 43
0.00000001
 40
0.0
 40
0.0
 40
0.0
 40
0.0
 40
0.0196233959004162
 40
0.0365970545905624
 40
0.0509208489285089
 40
0.06259481057378
 40
0.0924930490398197
 40
0.1251080742952312
 40
0.1759606063228605
 40
0.2503469898855964
 40
0.3754766590940107
 40
0.5002410313549378
 40
0.62501435446405
 40
0.7501391765636798
 40
0.812591389992547
 40
0.8750264632717656
 40
0.9078520999278257
 40
0.9375386797786177
 40
0.9652778320719722
 40
1.0
 40
1.0
 40
1.0
 40
1.0
 10
2.229453503417969
 20
-0.4891296620736025
 30
0.0
 10
2.227023449339766
 20
-0.4891097629364397
 30
0.0
 10
2.222491470154852
 20
-0.4890726516325273
 30
0.0
 10
2.216208618350887
 20
-0.4886280461507062
 30
0.0
 10
2.210936841684891
 20
-0.488055907064747
 30
0.0
 10
2.204125889068122
 20
-0.4870835677355346
 30
0.0
 10
2.195201481525185
 20
-0.485347685186887
 30
0.0
 10
2.181969124365649
 20
-0.4816510851706351
 30
0.0
 10
2.164523072360408
 20
-0.4746206679279406
 30
0.0
 10
2.140036208247826
 20
-0.4591117839282421
 30
0.0
 10
2.117119056046301
 20
-0.4310793923498364
 30
0.0
 10
2.107858681377251
 20
-0.3915820459390991
 30
0.0
 10
2.117185230345518
 20
-0.3502268491308655
 30
0.0
 10
2.139333046477682
 20
-0.3202631052417931
 30
0.0
 10
2.163361239382969
 20
-0.3020241824703274
 30
0.0
 10
2.180683304368417
 20
-0.2933949201799568
 30
0.0
 10
2.19526974358727
 20
-0.2885136344519722
 30
0.0
 10
2.206125024149942
 20
-0.285959509686201
 30
0.0
 10
2.21741340856931
 20
-0.2842599908856051
 30
0.0
 10
2.225151762420962
 20
-0.2840168198461421
 30
0.0
 10
2.229453503417969
 20
-0.2838816413766903
 30
0.0
  0
SPLINE
  5
116
330
1F
100
AcDbEntity
  8
0
  6
Continuous
 62
     7
370
    25
100
AcDbSpline
210
0.0
220
0.0
230
1.0
 70
    24
 71
     3
 72
    14
 73
    10
 74
     0
 42
0.000000001
 43
0.00000001
 40
0.0
 40
0.0
 40
0.0
 40
0.0
 40
0.25
 40
0.25
 40
0.5
 40
0.5
 40
0.7499999999999999
 40
0.7499999999999999
 40
1.0
 40
1.0
 40
1.0
 40
1.0
 10
-2.578740157480315
 20
0.4382204347631649
 30
0.0
 10
-2.578740157480315
 20
0.4382204347631619
 30
0.0
 10
-2.578740157480315
 20
0.3920485885481689
 30
0.0
 10
-2.578740157480315
 20
0.2276886936016004
 30
0.0
 10
-2.578740157480315
 20
0.1162199962697038
 30
0.0
 10
-2.578740157480315
 20
-0.116219996273451
 30
0.0
 10
-2.578740157480315
 20
-0.2276886936049529
 30
0.0
 10
-2.578740157480315
 20
-0.3920485885501159
 30
0.0
 10
-2.578740157480315
 20
-0.4382204347641559
 30
0.0
 10
-2.578740157480315
 20
-0.4382204347631652
 30
0.0
  0
LWPOLYLINE
  5
117
330
1F
100
AcDbEntity
  8
0
  6
Continuous
 62
     8
370
    25
100
AcDbPolyline
 90
       25
 70
   128
 43
0.0
 10
0.8690273036
 20
1.2401574803
 10
0.8690273036
 20
1.2395713921
 10
0.8690273036
 20
1.2348916523
 10
0.8690273036
 20
1.2255517154
 10
0.8690273036
 20
1.2115868281
 10
0.8690273036
 20
1.1930496907
 10
0.8690273036
 20
1.1700102582
 10
0.8690273036
 20
1.1425554759
 10
0.8690273036
 20
1.110788952
 10
0.8690273036
 20
1.074830566
 10
0.8690273036
 20
1.0348160166
 10
0.8690273036
 20
0.9908963095
 10
0.8690273036
 20
0.9432371875
 10
0.8690273036
 20
0.8920185053
 10
0.8690273036
 20
0.8374335504
 10
0.8690273036
 20
0.7796883138
 10
0.8690273036
 20
0.7190007129
 10
0.8690273036
 20
0.6555997685
 10
0.8690273036
 20
0.5897247414
 10
0.8690273036
 20
0.5216242286
 10
0.8690273036
 20
0.451555226
 10
0.8690273036
 20
0.3797821578
 10
0.8690273036
 20
0.3065758791
 10
0.8690273036
 20
0.2322126535
 10
0.8690271941
 20
0.1569731107
  0
SPLINE
  5
121
330
1F
100
AcDbEntity
  8
0
  6
Continuous
 62
     8
370
    25
100
AcDbSpline
210
0.0
220
0.0
230
1.0
 70
     8
 71
     3
 72
    19
 73
    15
 74
     0
 42
0.000000001
 43
0.00000001
 40
0.0
 40
0.0
 40
0.0
 40
0.0
 40
0.0825060443214429
 40
0.1659145857467665
 40
0.2493231271720902
 40
0.3327316685974123
 40
0.4161402100227367
 40
0.4995487514480595
 40
0.5829572928733832
 40
0.6663658342987067
 40
0.7497743757240296
 40
0.8331829171493526
 40
0.9165914585746763
 40
0.9999999999999999
 40
0.9999999999999999
 40
0.9999999999999999
 40
0.9999999999999999
 10
0.7495951193501299
 20
-1.04324235916486
 30
0.0
 10
0.7495953456528417
 20
-1.042127899418948
 30
0.0
 10
0.749595800733691
 20
-1.039886789345193
 30
0.0
 10
0.7495964845926778
 20
-1.021271844332015
 30
0.0
 10
0.749597170927089
 20
-0.9916425052940057
 30
0.0
 10
0.7495978572615013
 20
-0.9502783205986305
 30
0.0
 10
0.7495985435959125
 20
-0.8979620497749693
 30
0.0
 10
0.7495992299303248
 20
-0.8352185345003974
 30
0.0
 10
0.7495999162647361
 20
-0.7627984659243994
 30
0.0
 10
0.749600602599148
 20
-0.681529712620449
 30
0.0
 10
0.7496012889335596
 20
-0.592377750009328
 30
0.0
 10
0.7496019752679713
 20
-0.4962943310909808
 30
0.0
 10
0.7496026616023833
 20
-0.3946969739541508
 30
0.0
 10
0.7496031191586578
 20
-0.3233193796579682
 30
0.0
 10
0.7496033479367951
 20
-0.2876305825098769
 30
0.0
  0
SPLINE
  5
122
330
1F
100
AcDbEntity
  8
0
  6
Continuous
 62
     8
370
    25
100
AcDbSpline
210
0.0
220
0.0
230
1.0
 70
     8
 71
     3
 72
    20
 73
    16
 74
     0
 42
0.000000001
 43
0.00000001
 40
0.0
 40
0.0
 40
0.0
 40
0.0
 40
0.083258132396929
 40
0.1665162647938576
 40
0.2497743971907868
 40
0.3330325295877156
 40
0.4162906619846445
 40
0.4995487943815737
 40
0.5828069267785021
 40
0.6660650591754314
 40
0.7493231915723602
 40
0.8325813239692891
 40
0.915839456366218
 40
0.9990975887631468
 40
1.0
 40
1.0
 40
1.0
 40
1.0
 10
0.7495826571104572
 20
0.2852832016158003
 30
0.0
 10
0.7495829444830454
 20
0.3209987786876916
 30
0.0
 10
0.7495835192282216
 20
0.3924299328314739
 30
0.0
 10
0.7495843813459849
 20
0.4941411903399742
 30
0.0
 10
0.7495852434637494
 20
0.5903614261422153
 30
0.0
 10
0.7495861055815135
 20
0.6796743030231018
 30
0.0
 10
0.7495869676992774
 20
0.7611244246530798
 30
0.0
 10
0.7495878298170418
 20
0.8337485263514947
 30
0.0
 10
0.7495886919348057
 20
0.8967008704173455
 30
0.0
 10
0.7495895540525697
 20
0.9492860213874944
 30
0.0
 10
0.7495904161703343
 20
0.9907607960059801
 30
0.0
 10
0.7495912782880972
 20
1.021144355859116
 30
0.0
 10
0.7495921404058643
 20
1.038218188697937
 30
0.0
 10
0.7495927182657824
 20
1.045277135669351
 30
0.0
 10
0.7495930087531258
 20
1.043263836870098
 30
0.0
 10
0.7495930118678755
 20
1.043242249278323
 30
0.0
  0
SPLINE
  5
123
330
1F
100
AcDbEntity
  8
0
  6
Continuous
 62
     8
370
    25
100
AcDbSpline
210
0.0
220
0.0
230
1.0
 70
     8
 71
     3
 72
    14
 73
    10
 74
     0
 42
0.000000001
 43
0.00000001
 40
0.0
 40
0.0
 40
0.0
 40
0.0
 40
0.25
 40
0.25
 40
0.5
 40
0.5
 40
0.75
 40
0.75
 40
1.0
 40
1.0
 40
1.0
 40
1.0
 10
0.5692960258570936
 20
1.043307086614173
 30
0.0
 10
0.5692958807565871
 20
1.043307087137383
 30
0.0
 10
0.5692957356560806
 20
1.026507405192742
 30
0.0
 10
0.5692954454550679
 20
0.9608961966127221
 30
0.0
 10
0.5692953003545614
 20
0.9120946718032074
 30
0.0
 10
0.5692950101535486
 20
0.7871113808692275
 30
0.0
 10
0.569294865053042
 20
0.7109486672990266
 30
0.0
 10
0.5692945748520292
 20
0.538478255071046
 30
0.0
 10
0.5692944297515228
 20
0.4421968479428242
 30
0.0
 10
0.5692942846510163
 20
0.3404183938716611
 30
0.0
  0
LINE
  5
127
330
1F
100
AcDbEntity
  8
0
  6
Continuous
 62
     7
370
    25
100
AcDbLine
 10
0.8690273036
 20
-1.2401574803
 30
0.0
 11
1.031742126
 21
-1.2401574803
 31
0.0
  0
LINE
  5
128
330
1F
100
AcDbEntity
  8
0
  6
Continuous
 62
     7
370
    25
100
AcDbLine
 10
1.031742126
 20
1.2401574803
 30
0.0
 11
0.8690273036
 21
1.2401574803
 31
0.0
  0
LINE
  5
129
330
1F
100
AcDbEntity
  8
0
  6
Continuous
 62
     7
370
    25
100
AcDbLine
 10
0.8646935789
 20
1.2376492064
 30
0.0
 11
0.7538882512
 21
1.0457287497
 31
0.0
  0
LINE
  5
12A
330
1F
100
AcDbEntity
  8
0
  6
Continuous
 62
     7
370
    25
100
AcDbLine
 10
0.753887965
 20
-1.0457282539
 30
0.0
 11
0.8646935789
 21
-1.2376492064
 31
0.0
  0
LINE
  5
12B
330
1F
100
AcDbEntity
  8
0
  6
Continuous
 62
     7
370
    25
100
AcDbLine
 10
0.5649641585
 20
1.0458070871
 30
0.0
 11
0.4541992818
 21
1.2376574806
 31
0.0
  0
LINE
  5
12C
330
1F
100
AcDbEntity
  8
0
  6
Continuous
 62
     7
370
    25
100
AcDbLine
 10
0.4541992818
 20
-1.2376574806
 30
0.0
 11
0.5649641585
 21
-1.0458070871
 31
0.0
  0
LINE
  5
12D
330
1F
100
AcDbEntity
  8
0
  6
Continuous
 62
     7
370
    25
100
AcDbLine
 10
0.0555584153
 20
1.2413507381
 30
0.0
 11
0.0387401575
 21
1.2245324803
 31
0.0
  0
LINE
  5
12E
330
1F
100
AcDbEntity
  8
0
  6
Continuous
 62
     7
370
    25
100
AcDbLine
 10
0.4498691542
 20
1.2401574803
 30
0.0
 11
0.0533591648
 21
1.2401574803
 31
0.0
  0
LINE
  5
12F
330
1F
100
AcDbEntity
  8
0
  6
Continuous
 62
     7
370
    25
100
AcDbLine
 10
0.0387401575
 20
-1.2245324803
 30
0.0
 11
0.055558416
 21
-1.2413507388
 31
0.0
  0
LINE
  5
130
330
1F
100
AcDbEntity
  8
0
  6
Continuous
 62
     7
370
    25
100
AcDbLine
 10
0.0533549015
 20
-1.2401574803
 30
0.0
 11
0.4498691542
 21
-1.2401574803
 31
0.0
  0
LINE
  5
131
330
1F
100
AcDbEntity
  8
0
  6
Continuous
 62
     7
370
    25
100
AcDbLine
 10
0.5692942847
 20
-1.0433070866
 30
0.0
 11
0.7495951194
 21
-1.0433070866
 31
0.0
  0
LINE
  5
132
330
1F
100
AcDbEntity
  8
0
  6
Continuous
 62
     7
370
    25
100
AcDbLine
 10
0.7495930119
 20
1.0433070866
 30
0.0
 11
0.5692960259
 21
1.0433070866
 31
0.0
  0
LINE
  5
133
330
1F
100
AcDbEntity
  8
0
  6
Continuous
 62
     7
370
    25
100
AcDbLine
 10
1.062929915
 20
-0.8775622108
 30
0.0
 11
1.142992126
 21
-0.7975
 31
0.0
  0
LINE
  5
134
330
1F
100
AcDbEntity
  8
0
  6
Continuous
 62
     7
370
    25
100
AcDbLine
 10
1.142992126
 20
0.7975
 30
0.0
 11
1.0629297906
 21
0.8775623353
 31
0.0
  0
LINE
  5
135
330
1F
100
AcDbEntity
  8
0
  6
Continuous
 62
     7
370
    25
100
AcDbLine
 10
0.0000000001
 20
-0.875
 30
0.0
 11
0.0074901575
 21
-0.875
 31
0.0
  0
LINE
  5
136
330
1F
100
AcDbEntity
  8
0
  6
Continuous
 62
     7
370
    25
100
AcDbLine
 10
0.0074901575
 20
0.875
 30
0.0
 11
0.0000000001
 21
0.875
 31
0.0
  0
LINE
  5
137
330
1F
100
AcDbEntity
  8
0
  6
Continuous
 62
     7
370
    25
100
AcDbLine
 10
0.0000000001
 20
0.8749999996
 30
0.0
 11
-2.5254191172
 21
0.5000427341
 31
0.0
  0
LINE
  5
138
330
1F
100
AcDbEntity
  8
0
  6
Continuous
 62
     7
370
    25
100
AcDbLine
 10
-2.5254191172
 20
-0.5000427341
 30
0.0
 11
0.0000000001
 21
-0.8749999996
 31
0.0
  0
LINE
  5
139
330
1F
100
AcDbEntity
  8
0
  6
Continuous
 62
     7
370
    25
100
AcDbLine
 10
1.8059535433
 20
-0.7975
 30
0.0
 11
1.8160095529
 21
-0.7874439904
 31
0.0
  0
LINE
  5
13A
330
1F
100
AcDbEntity
  8
0
  6
Continuous
 62
     7
370
    25
100
AcDbLine
 10
1.8160095529
 20
0.7874439904
 30
0.0
 11
1.8059535433
 21
0.7975
 31
0.0
  0
LINE
  5
13B
330
1F
100
AcDbEntity
  8
0
  6
Continuous
 62
     7
370
    25
100
AcDbLine
 10
1.142992126
 20
-0.7975
 30
0.0
 11
1.8059535433
 21
-0.7975
 31
0.0
  0
LINE
  5
13C
330
1F
100
AcDbEntity
  8
0
  6
Continuous
 62
     7
370
    25
100
AcDbLine
 10
1.8059535433
 20
0.7975
 30
0.0
 11
1.142992126
 21
0.7975
 31
0.0
  0
LINE
  5
13D
330
1F
100
AcDbEntity
  8
0
  6
Continuous
 62
     7
370
    25
100
AcDbLine
 10
1.8459535433
 20
-0.795
 30
0.0
 11
1.9892963476
 21
-0.795
 31
0.0
  0
LINE
  5
13E
330
1F
100
AcDbEntity
  8
0
  6
Continuous
 62
     7
370
    25
100
AcDbLine
 10
1.9892963476
 20
0.795
 30
0.0
 11
1.8459535433
 21
0.795
 31
0.0
  0
LINE
  5
13F
330
1F
100
AcDbEntity
  8
0
  6
Continuous
 62
     7
370
    25
100
AcDbLine
 10
2.1066595703
 20
0.787
 30
0.0
 11
2.0487515695
 21
0.787
 31
0.0
  0
LINE
  5
140
330
1F
100
AcDbEntity
  8
0
  6
Continuous
 62
     7
370
    25
100
AcDbLine
 10
2.9831197912
 20
0.787
 30
0.0
 11
2.5852474365
 21
0.787
 31
0.0
  0
LINE
  5
141
330
1F
100
AcDbEntity
  8
0
  6
Continuous
 62
     7
370
    25
100
AcDbLine
 10
2.5852474878
 20
-0.787
 30
0.0
 11
2.9831197912
 21
-0.787
 31
0.0
  0
LINE
  5
142
330
1F
100
AcDbEntity
  8
0
  6
Continuous
 62
     7
370
    25
100
AcDbLine
 10
2.0487515695
 20
-0.787
 30
0.0
 11
2.106659519
 21
-0.787
 31
0.0
  0
LINE
  5
143
330
1F
100
AcDbEntity
  8
0
  6
Continuous
 62
     7
370
    25
100
AcDbLine
 10
0.5657427661
 20
0.3373433085
 30
0.0
 11
0.5571614255
 21
0.3225
 31
0.0
  0
LINE
  5
144
330
1F
100
AcDbEntity
  8
0
  6
Continuous
 62
     7
370
    25
100
AcDbLine
 10
0.0543651575
 20
0.3225
 30
0.0
 11
0.5571524649
 21
0.3225
 31
0.0
  0
LINE
  5
145
330
1F
100
AcDbEntity
  8
0
  6
Continuous
 62
     7
370
    25
100
AcDbLine
 10
0.4519929268
 20
-0.3370902806
 30
0.0
 11
0.4435765887
 21
-0.3225000002
 31
0.0
  0
LINE
  5
146
330
1F
100
AcDbEntity
  8
0
  6
Continuous
 62
     7
370
    25
100
AcDbLine
 10
0.0545707754
 20
0.3376335059
 30
0.0
 11
0.0609907191
 21
0.3225
 31
0.0
  0
LINE
  5
147
330
1F
100
AcDbEntity
  8
0
  6
Continuous
 62
     7
370
    25
100
AcDbLine
 10
0.4498691542
 20
0.3375615381
 30
0.0
 11
0.0545707754
 21
0.3376335059
 31
0.0
  0
LINE
  5
148
330
1F
100
AcDbEntity
  8
0
  6
Continuous
 62
     7
370
    25
100
AcDbLine
 10
0.0387401575
 20
0.2246953958
 30
0.0
 11
0.0387401575
 21
1.2245324803
 31
0.0
  0
LINE
  5
149
330
1F
100
AcDbEntity
  8
0
  6
Continuous
 62
     7
370
    25
100
AcDbLine
 10
0.0543651575
 20
0.3225
 30
0.0
 11
0.0389663104
 21
0.337898847
 31
0.0
  0
LINE
  5
14A
330
1F
100
AcDbEntity
  8
0
  6
Continuous
 62
     7
370
    25
100
AcDbLine
 10
0.0387401575
 20
-1.2245324803
 30
0.0
 11
0.0387401575
 21
-0.2246953958
 31
0.0
  0
LINE
  5
14B
330
1F
100
AcDbEntity
  8
0
  6
Continuous
 62
     7
370
    25
100
AcDbLine
 10
0.0545707755
 20
-0.3377064407
 30
0.0
 11
0.0609907191
 21
-0.3225000001
 31
0.0
  0
LINE
  5
14C
330
1F
100
AcDbEntity
  8
0
  6
Continuous
 62
     7
370
    25
100
AcDbLine
 10
0.0387956911
 20
-0.3380694664
 30
0.0
 11
0.0543651575
 21
-0.3225
 31
0.0
  0
LINE
  5
14D
330
1F
100
AcDbEntity
  8
0
  6
Continuous
 62
     7
370
    25
100
AcDbLine
 10
0.5485707145
 20
-0.3225
 30
0.0
 11
0.0543651575
 21
-0.3225
 31
0.0
  0
LINE
  5
14E
330
1F
100
AcDbEntity
  8
0
  6
Continuous
 62
     7
370
    25
100
AcDbLine
 10
0.0545707755
 20
-0.3376335059
 30
0.0
 11
0.4498691542
 21
-0.3375615381
 31
0.0
  0
LINE
  5
14F
330
1F
100
AcDbEntity
  8
0
  6
Continuous
 62
     7
370
    25
100
AcDbLine
 10
0.5681889764
 20
0.3225
 30
0.0
 11
0.5681889764
 21
0.3373231856
 31
0.0
  0
LINE
  5
150
330
1F
100
AcDbEntity
  8
0
  6
Continuous
 62
     7
370
    25
100
AcDbLine
 10
0.5682216409
 20
-0.3225
 30
0.0
 11
0.5485806503
 21
-0.3224999997
 31
0.0
  0
LINE
  5
151
330
1F
100
AcDbEntity
  8
0
  6
Continuous
 62
     7
370
    25
100
AcDbLine
 10
0.5681889764
 20
0.3373231856
 30
0.0
 11
0.5657427661
 21
0.3373433085
 31
0.0
  0
LINE
  5
152
330
1F
100
AcDbEntity
  8
0
  6
Continuous
 62
     7
370
    25
100
AcDbLine
 10
0.5571614255
 20
0.3225
 30
0.0
 11
0.5681889764
 21
0.3225
 31
0.0
  0
LINE
  5
153
330
1F
100
AcDbEntity
  8
0
  6
Continuous
 62
     7
370
    25
100
AcDbLine
 10
1.142992126
 20
-0.7975
 30
0.0
 11
1.142992126
 21
0.7975
 31
0.0
  0
LINE
  5
154
330
1F
100
AcDbEntity
  8
0
  6
Continuous
 62
     7
370
    25
100
AcDbLine
 10
0.0000000001
 20
-0.8749999996
 30
0.0
 11
0.0000000001
 21
0.8749999996
 31
0.0
  0
LINE
  5
155
330
1F
100
AcDbEntity
  8
0
  6
Continuous
 62
     7
370
    25
100
AcDbLine
 10
1.8059535433
 20
-0.7975
 30
0.0
 11
1.8059535433
 21
0.7975
 31
0.0
  0
LINE
  5
156
330
1F
100
AcDbEntity
  8
0
  6
Continuous
 62
     7
370
    25
100
AcDbLine
 10
1.8159535433
 20
-0.7875
 30
0.0
 11
1.8159535433
 21
0.7875
 31
0.0
  0
LINE
  5
157
330
1F
100
AcDbEntity
  8
0
  6
Continuous
 62
     7
370
    25
100
AcDbLine
 10
1.9892963476
 20
-0.795
 30
0.0
 11
1.9892963476
 21
0.795
 31
0.0
  0
LINE
  5
158
330
1F
100
AcDbEntity
  8
0
  6
Continuous
 62
     7
370
    25
100
AcDbLine
 10
2.0487515695
 20
0.787
 30
0.0
 11
2.0487515695
 21
-0.787
 31
0.0
  0
LINE
  5
159
330
1F
100
AcDbEntity
  8
0
  6
Continuous
 62
     7
370
    25
100
AcDbLine
 10
2.9831197912
 20
-0.787
 30
0.0
 11
2.9831197912
 21
0.787
 31
0.0
  0
LINE
  5
15A
330
1F
100
AcDbEntity
  8
0
  6
Continuous
 62
     7
370
    25
100
AcDbLine
 10
2.9999535433
 20
-0.7701640991
 30
0.0
 11
2.9999535433
 21
0.7701662479
 31
0.0
  0
LINE
  5
15B
330
1F
100
AcDbEntity
  8
0
  6
Continuous
 62
     7
370
    25
100
AcDbLine
 10
2.2294535034
 20
-0.7772542234
 30
0.0
 11
2.4624535034
 21
-0.7772542234
 31
0.0
  0
LINE
  5
15C
330
1F
100
AcDbEntity
  8
0
  6
Continuous
 62
     7
370
    25
100
AcDbLine
 10
2.2294535034
 20
-0.2816988455
 30
0.0
 11
2.4624535034
 21
-0.2816988455
 31
0.0
  0
LINE
  5
15D
330
1F
100
AcDbEntity
  8
0
  6
Continuous
 62
     7
370
    25
100
AcDbLine
 10
2.4624535034
 20
-0.495555378
 30
0.0
 11
2.2294535034
 21
-0.495555378
 31
0.0
  0
LINE
  5
15E
330
1F
100
AcDbEntity
  8
0
  6
Continuous
 62
     7
370
    25
100
AcDbLine
 10
2.2294535034
 20
0.495555378
 30
0.0
 11
2.4624535034
 21
0.495555378
 31
0.0
  0
LINE
  5
15F
330
1F
100
AcDbEntity
  8
0
  6
Continuous
 62
     7
370
    25
100
AcDbLine
 10
2.4624535034
 20
0.2816988455
 30
0.0
 11
2.2294535034
 21
0.2816988455
 31
0.0
  0
LINE
  5
160
330
1F
100
AcDbEntity
  8
0
  6
Continuous
 62
     7
370
    25
100
AcDbLine
 10
2.4624535034
 20
0.7772542234
 30
0.0
 11
2.2294535034
 21
0.7772542234
 31
0.0
  0
LINE
  5
161
330
1F
100
AcDbEntity
  8
0
  6
Continuous
 62
     7
370
    25
100
AcDbLine
 10
2.2294535034
 20
0.2838816414
 30
0.0
 11
2.2294535034
 21
0.2816988455
 31
0.0
  0
LINE
  5
162
330
1F
100
AcDbEntity
  8
0
  6
Continuous
 62
     7
370
    25
100
AcDbLine
 10
2.2294535034
 20
0.495555378
 30
0.0
 11
2.2294535034
 21
0.4361240103
 31
0.0
  0
LINE
  5
163
330
1F
100
AcDbEntity
  8
0
  6
Continuous
 62
     7
370
    25
100
AcDbLine
 10
2.4624535034
 20
0.4361240103
 30
0.0
 11
2.4624535034
 21
0.495555378
 31
0.0
  0
LINE
  5
164
330
1F
100
AcDbEntity
  8
0
  6
Continuous
 62
     7
370
    25
100
AcDbLine
 10
2.4624535034
 20
0.2816988455
 30
0.0
 11
2.4624535034
 21
0.2838816414
 31
0.0
  0
LINE
  5
165
330
1F
100
AcDbEntity
  8
0
  6
Continuous
 62
     7
370
    25
100
AcDbLine
 10
2.4624535034
 20
-0.495555378
 30
0.0
 11
2.4624535034
 21
-0.4361240103
 31
0.0
  0
LINE
  5
166
330
1F
100
AcDbEntity
  8
0
  6
Continuous
 62
     7
370
    25
100
AcDbLine
 10
2.4624535034
 20
-0.2838816414
 30
0.0
 11
2.4624535034
 21
-0.2816988455
 31
0.0
  0
LINE
  5
167
330
1F
100
AcDbEntity
  8
0
  6
Continuous
 62
     7
370
    25
100
AcDbLine
 10
2.2294535034
 20
-0.4361240103
 30
0.0
 11
2.2294535034
 21
-0.495555378
 31
0.0
  0
LINE
  5
168
330
1F
100
AcDbEntity
  8
0
  6
Continuous
 62
     7
370
    25
100
AcDbLine
 10
2.2294535034
 20
-0.2838816414
 30
0.0
 11
2.2294535034
 21
-0.2816988455
 31
0.0
  0
LINE
  5
169
330
1F
100
AcDbEntity
  8
0
  6
Continuous
 62
     7
370
    25
100
AcDbLine
 10
2.4624535034
 20
-0.2838816414
 30
0.0
 11
2.2294535034
 21
-0.2838816414
 31
0.0
  0
LINE
  5
16A
330
1F
100
AcDbEntity
  8
0
  6
Continuous
 62
     7
370
    25
100
AcDbLine
 10
2.4624535034
 20
0.2838816414
 30
0.0
 11
2.2294535034
 21
0.2838816414
 31
0.0
  0
LINE
  5
16B
330
1F
100
AcDbEntity
  8
0
  6
Continuous
 62
     7
370
    25
100
AcDbLine
 10
2.2294535034
 20
0.4361240103
 30
0.0
 11
2.4624535034
 21
0.4361240103
 31
0.0
  0
LINE
  5
16C
330
1F
100
AcDbEntity
  8
0
  6
Continuous
 62
     7
370
    25
100
AcDbLine
 10
2.4624535034
 20
-0.4361240103
 30
0.0
 11
2.2294535034
 21
-0.4361240103
 31
0.0
  0
LINE
  5
16D
330
1F
100
AcDbEntity
  8
0
  6
Continuous
 62
     7
370
    25
100
AcDbLine
 10
2.4624535034
 20
-0.4891296621
 30
0.0
 11
2.2294535034
 21
-0.4891296621
 31
0.0
  0
LINE
  5
16E
330
1F
100
AcDbEntity
  8
0
  6
Continuous
 62
     7
370
    25
100
AcDbLine
 10
2.4624535034
 20
0.4891296621
 30
0.0
 11
2.2294535034
 21
0.4891296621
 31
0.0
  0
LINE
  5
16F
330
1F
100
AcDbEntity
  8
0
  6
Continuous
 62
     8
370
    25
100
AcDbLine
 10
0.8690273036
 20
-0.1570339012
 30
0.0
 11
0.8690273036
 21
-1.2401574803
 31
0.0
  0
LINE
  5
170
330
1F
100
AcDbEntity
  8
0
  6
Continuous
 62
     8
370
    25
100
AcDbLine
 10
1.031742126
 20
-1.2401574803
 30
0.0
 11
1.031742126
 21
1.2401574803
 31
0.0
  0
LINE
  5
171
330
1F
100
AcDbEntity
  8
0
  6
Continuous
 62
     8
370
    25
100
AcDbLine
 10
0.4541992818
 20
1.2376574806
 30
0.0
 11
0.4541992818
 21
0.3379849579
 31
0.0
  0
LINE
  5
172
330
1F
100
AcDbEntity
  8
0
  6
Continuous
 62
     8
370
    25
100
AcDbLine
 10
0.5649641585
 20
0.3379283295
 30
0.0
 11
0.5649641585
 21
1.0458070871
 31
0.0
  0
LINE
  5
173
330
1F
100
AcDbEntity
  8
0
  6
Continuous
 62
     8
370
    25
100
AcDbLine
 10
0.5649641585
 20
-1.0458070871
 30
0.0
 11
0.5649641585
 21
-0.3379283295
 31
0.0
  0
LINE
  5
174
330
1F
100
AcDbEntity
  8
0
  6
Continuous
 62
     8
370
    25
100
AcDbLine
 10
0.4541992818
 20
-0.337984958
 30
0.0
 11
0.4541992818
 21
-1.2376574806
 31
0.0
  0
LINE
  5
175
330
1F
100
AcDbEntity
  8
0
  6
Continuous
 62
     8
370
    25
100
AcDbLine
 10
0.4498691542
 20
0.3375615381
 30
0.0
 11
0.4498691542
 21
1.2401574803
 31
0.0
  0
LINE
  5
176
330
1F
100
AcDbEntity
  8
0
  6
Continuous
 62
     8
370
    25
100
AcDbLine
 10
0.4498691542
 20
-1.2401574803
 30
0.0
 11
0.4498691542
 21
-0.337561538
 31
0.0
  0
LINE
  5
177
330
1F
100
AcDbEntity
  8
0
  6
Continuous
 62
     8
370
    25
100
AcDbLine
 10
0.5692942847
 20
-0.3404183768
 30
0.0
 11
0.5692942847
 21
-1.0433070866
 31
0.0
  0
LINE
  5
178
330
1F
100
AcDbEntity
  8
0
  6
Continuous
 62
     8
370
    25
100
AcDbLine
 10
0.0074901575
 20
-0.875
 30
0.0
 11
0.0074901575
 21
0.875
 31
0.0
  0
LINE
  5
179
330
1F
100
AcDbEntity
  8
0
  6
Continuous
 62
     8
370
    25
100
AcDbLine
 10
-2.5254191172
 20
0.5000427341
 30
0.0
 11
-2.5254191172
 21
-0.5000427341
 31
0.0
  0
LINE
  5
17A
330
1F
100
AcDbEntity
  8
0
  6
Continuous
 62
     8
370
    25
100
AcDbLine
 10
1.8459535433
 20
-0.795
 30
0.0
 11
1.8459535433
 21
0.795
 31
0.0
  0
ARC
  5
17B
330
1F
100
AcDbEntity
  8
0
  6
Continuous
 62
     7
370
    25
100
AcDbCircle
 10
0.8690284835
 20
1.2351574806
 30
0.0
 40
0.0049999997600624
100
AcDbArc
 50
90.0135208271
 51
150.1531373876
  0
ARC
  5
17C
330
1F
100
AcDbEntity
  8
0
  6
Continuous
 62
     7
370
    25
100
AcDbCircle
 10
1.031742126
 20
-1.2089074803
 30
0.0
 40
0.0312500000000002
100
AcDbArc
 50
270.0
 51
0.0
  0
ARC
  5
17D
330
1F
100
AcDbEntity
  8
0
  6
Continuous
 62
     7
370
    25
100
AcDbCircle
 10
1.031742126
 20
1.2089074803
 30
0.0
 40
0.03125
100
AcDbArc
 50
0.0
 51
90.0
  0
ARC
  5
17E
330
1F
100
AcDbEntity
  8
0
  6
Continuous
 62
     7
370
    25
100
AcDbCircle
 10
0.8690284838
 20
-1.2351574801
 30
0.0
 40
0.0050000003093657
100
AcDbArc
 50
209.8280100693
 51
269.9864755281
  0
ARC
  5
17F
330
1F
100
AcDbEntity
  8
0
  6
Continuous
 62
     7
370
    25
100
AcDbCircle
 10
0.4498691552
 20
1.2351574815
 30
0.0
 40
0.0049999988158426
100
AcDbArc
 50
29.9999869297
 51
90.0000123537
  0
ARC
  5
180
330
1F
100
AcDbEntity
  8
0
  6
Continuous
 62
     7
370
    25
100
AcDbCircle
 10
0.4498691537
 20
-1.2351574788
 30
0.0
 40
0.0050000015257131
100
AcDbArc
 50
270.0000055746
 51
329.9999951419
  0
ARC
  5
181
330
1F
100
AcDbEntity
  8
0
  6
Continuous
 62
     7
370
    25
100
AcDbCircle
 10
0.7496033531
 20
-1.0483070866
 30
0.0
 40
0.004999999999999
100
AcDbArc
 50
31.0355059204
 51
89.9496280253
  0
ARC
  5
182
330
1F
100
AcDbEntity
  8
0
  6
Continuous
 62
     7
370
    25
100
AcDbCircle
 10
0.7496033531
 20
1.0483070866
 30
0.0
 40
0.0050000000000003
100
AcDbArc
 50
269.7380112584
 51
329.0309510687
  0
ARC
  5
183
330
1F
100
AcDbEntity
  8
0
  6
Continuous
 62
     7
370
    25
100
AcDbCircle
 10
0.569294284
 20
1.0483070845
 30
0.0
 40
0.004999997882283
100
AcDbArc
 50
209.9999922623
 51
270.000794508
  0
ARC
  5
184
330
1F
100
AcDbEntity
  8
0
  6
Continuous
 62
     7
370
    25
100
AcDbCircle
 10
0.5692942861
 20
-1.0483070883
 30
0.0
 40
0.0050000016436798
100
AcDbArc
 50
90.0000171477
 51
149.9999828523
  0
ARC
  5
185
330
1F
100
AcDbEntity
  8
0
  6
Continuous
 62
     7
370
    25
100
AcDbCircle
 10
0.0074901575
 20
-0.90625
 30
0.0
 40
0.0312500000000002
100
AcDbArc
 50
0.0
 51
90.0
  0
ARC
  5
186
330
1F
100
AcDbEntity
  8
0
  6
Continuous
 62
     7
370
    25
100
AcDbCircle
 10
0.0074901575
 20
0.90625
 30
0.0
 40
0.0312500000000001
100
AcDbArc
 50
270.0
 51
0.0
  0
ARC
  5
187
330
1F
100
AcDbEntity
  8
0
  6
Continuous
 62
     7
370
    25
100
AcDbCircle
 10
1.8459535433
 20
0.765
 30
0.0
 40
0.03
100
AcDbArc
 50
90.0
 51
180.0
  0
ARC
  5
188
330
1F
100
AcDbEntity
  8
0
  6
Continuous
 62
     7
370
    25
100
AcDbCircle
 10
1.8459535433
 20
-0.765
 30
0.0
 40
0.03
100
AcDbArc
 50
180.0
 51
270.0
  0
ARC
  5
189
330
1F
100
AcDbEntity
  8
0
  6
Continuous
 62
     7
370
    25
100
AcDbCircle
 10
2.0259535433
 20
-0.8425
 30
0.0
 40
0.0600000000000058
100
AcDbArc
 50
67.6683549908
 51
127.6584620062
  0
ARC
  5
18A
330
1F
100
AcDbEntity
  8
0
  6
Continuous
 62
     7
370
    25
100
AcDbCircle
 10
2.0259535433
 20
0.8425
 30
0.0
 40
0.0599999999999919
100
AcDbArc
 50
232.3415379938
 51
292.3316450092
  0
ARC
  5
18B
330
1F
100
AcDbEntity
  8
0
  6
Continuous
 62
     7
370
    25
100
AcDbCircle
 10
2.9499535433
 20
0.737
 30
0.0
 40
0.0600000000000546
100
AcDbArc
 50
33.5494584001
 51
56.4426902381
  0
ARC
  5
18C
330
1F
100
AcDbEntity
  8
0
  6
Continuous
 62
     7
370
    25
100
AcDbCircle
 10
2.9499535433
 20
-0.737
 30
0.0
 40
0.0599999999999555
100
AcDbArc
 50
303.5573097619
 51
326.4269036208
  0
ARC
  5
18D
330
1F
100
AcDbEntity
  8
0
  6
Continuous
 62
     7
370
    25
100
AcDbCircle
 10
-2.5162401575
 20
-0.4382204348
 30
0.0
 40
0.0624999999739698
100
AcDbArc
 50
179.9999999894
 51
261.554803121
  0
ARC
  5
18E
330
1F
100
AcDbEntity
  8
0
  6
Continuous
 62
     7
370
    25
100
AcDbCircle
 10
-2.5162401575
 20
0.4382204347
 30
0.0
 40
0.0625000000152811
100
AcDbArc
 50
98.4451969116
 51
179.999999978
  0
ENDSEC
  0
SECTION
  2
OBJECTS
  0
DICTIONARY
  5
C
330
0
100
AcDbDictionary
281
     1
  3
ACAD_GROUP
350
D
  3
ACAD_LAYOUT
350
1A
  3
ACAD_MLINESTYLE
350
17
  3
ACAD_PLOTSETTINGS
350
19
  3
ACAD_PLOTSTYLENAME
350
E
  3
ACAD_SCALELIST
350
47
  0
DICTIONARY
  5
D
102
{ACAD_REACTORS
330
C
102
}
330
C
100
AcDbDictionary
281
     1
  0
DICTIONARY
  5
1A
102
{ACAD_REACTORS
330
C
102
}
330
C
100
AcDbDictionary
281
     1
  3
Layout1
350
1E
  3
Layout2
350
26
  3
Model
350
22
  0
DICTIONARY
  5
17
102
{ACAD_REACTORS
330
C
102
}
330
C
100
AcDbDictionary
281
     1
  3
Standard
350
18
  0
DICTIONARY
  5
19
102
{ACAD_REACTORS
330
C
102
}
330
C
100
AcDbDictionary
281
     1
  0
ACDBDICTIONARYWDFLT
  5
E
102
{ACAD_REACTORS
330
C
102
}
330
C
100
AcDbDictionary
281
     1
  3
Normal
350
F
100
AcDbDictionaryWithDefault
340
F
  0
DICTIONARY
  5
47
102
{ACAD_REACTORS
330
C
102
}
330
C
100
AcDbDictionary
281
     1
  3
A0
350
48
  3
A1
350
49
  3
A2
350
4A
  3
A3
350
4B
  3
A4
350
4C
  3
A5
350
4D
  3
A6
350
4E
  3
A7
350
4F
  3
A8
350
50
  3
A9
350
51
  3
B0
350
52
  3
B1
350
53
  3
B2
350
54
  3
B3
350
55
  3
B4
350
56
  3
B5
350
57
  3
B6
350
58
  3
B7
350
59
  3
B8
350
5A
  3
B9
350
5B
  3
C0
350
5C
  3
C1
350
5D
  3
C2
350
5E
  3
C3
350
5F
  3
C4
350
60
  3
C5
350
61
  3
C6
350
62
  3
C7
350
63
  3
C8
350
64
  3
C9
350
65
  3
D0
350
66
  3
D1
350
67
  3
D2
350
68
  0
LAYOUT
  5
1E
102
{ACAD_REACTORS
330
1A
102
}
330
1A
100
AcDbPlotSettings
  1

  2
none_device
  4

  6

 40
0.0
 41
0.0
 42
0.0
 43
0.0
 44
0.0
 45
0.0
 46
0.0
 47
0.0
 48
0.0
 49
0.0
140
0.0
141
0.0
142
1.0
143
1.0
 70
   688
 72
     0
 73
     0
 74
     5
  7

 75
    16
147
1.0
148
0.0
149
0.0
100
AcDbLayout
  1
Layout1
 70
     1
 71
     1
 10
0.0
 20
0.0
 11
12.0
 21
9.0
 12
0.0
 22
0.0
 32
0.0
 14
1.0000000000E+20
 24
1.0000000000E+20
 34
1.0000000000E+20
 15
-1.0000000000E+20
 25
-1.0000000000E+20
 35
-1.0000000000E+20
146
0.0
 13
0.0
 23
0.0
 33
0.0
 16
1.0
 26
0.0
 36
0.0
 17
0.0
 27
1.0
 37
0.0
 76
     0
330
1B
  0
LAYOUT
  5
26
102
{ACAD_REACTORS
330
1A
102
}
330
1A
100
AcDbPlotSettings
  1

  2
none_device
  4

  6

 40
0.0
 41
0.0
 42
0.0
 43
0.0
 44
0.0
 45
0.0
 46
0.0
 47
0.0
 48
0.0
 49
0.0
140
0.0
141
0.0
142
1.0
143
1.0
 70
   688
 72
     0
 73
     0
 74
     5
  7

 75
    16
147
1.0
148
0.0
149
0.0
100
AcDbLayout
  1
Layout2
 70
     1
 71
     2
 10
0.0
 20
0.0
 11
0.0
 21
0.0
 12
0.0
 22
0.0
 32
0.0
 14
0.0
 24
0.0
 34
0.0
 15
0.0
 25
0.0
 35
0.0
146
0.0
 13
0.0
 23
0.0
 33
0.0
 16
1.0
 26
0.0
 36
0.0
 17
0.0
 27
1.0
 37
0.0
 76
     0
330
23
  0
LAYOUT
  5
22
102
{ACAD_REACTORS
330
1A
102
}
330
1A
100
AcDbPlotSettings
  1

  2
none_device
  4
ANSI_A_(11.00_x_8.50_Inches)
  6

 40
6.35
 41
19.05
 42
6.35000508
 43
19.05000254
 44
279.4
 45
215.9
 46
122.9074711142
 47
88.8999987477
 48
0.0
 49
0.0
140
0.0
141
0.0
142
1.9520683001
143
1.0
 70
  1696
 72
     0
 73
     0
 74
     0
  7

 75
     0
147
0.5913241897
148
-39.4088153714
149
0.0
100
AcDbLayout
  1
Model
 70
     1
 71
     0
 10
0.0
 20
0.0
 11
12.0
 21
9.0
 12
0.0
 22
0.0
 32
0.0
 14
-2.5787401575
 24
-1.2413507388
 34
0.0
 15
2.9999580877
 25
1.2413507381
 35
0.0
146
0.0
 13
0.0
 23
0.0
 33
0.0
 16
1.0
 26
0.0
 36
0.0
 17
0.0
 27
1.0
 37
0.0
 76
     0
330
1F
331
29
  0
MLINESTYLE
  5
18
102
{ACAD_REACTORS
330
17
102
}
330
17
100
AcDbMlineStyle
  2
Standard
 70
     0
  3

 62
   256
 51
90.0
 52
90.0
 71
     2
 49
0.5
 62
   256
  6
BYLAYER
 49
-0.5
 62
   256
  6
BYLAYER
  0
ACDBPLACEHOLDER
  5
F
102
{ACAD_REACTORS
330
E
102
}
330
E
  0
SCALE
  5
48
102
{ACAD_REACTORS
330
47
102
}
330
47
100
AcDbScale
 70
     0
300
1:1
140
1.0
141
1.0
290
     1
  0
SCALE
  5
49
102
{ACAD_REACTORS
330
47
102
}
330
47
100
AcDbScale
 70
     0
300
1:2
140
1.0
141
2.0
290
     0
  0
SCALE
  5
4A
102
{ACAD_REACTORS
330
47
102
}
330
47
100
AcDbScale
 70
     0
300
1:4
140
1.0
141
4.0
290
     0
  0
SCALE
  5
4B
102
{ACAD_REACTORS
330
47
102
}
330
47
100
AcDbScale
 70
     0
300
1:5
140
1.0
141
5.0
290
     0
  0
SCALE
  5
4C
102
{ACAD_REACTORS
330
47
102
}
330
47
100
AcDbScale
 70
     0
300
1:8
140
1.0
141
8.0
290
     0
  0
SCALE
  5
4D
102
{ACAD_REACTORS
330
47
102
}
330
47
100
AcDbScale
 70
     0
300
1:10
140
1.0
141
10.0
290
     0
  0
SCALE
  5
4E
102
{ACAD_REACTORS
330
47
102
}
330
47
100
AcDbScale
 70
     0
300
1:16
140
1.0
141
16.0
290
     0
  0
SCALE
  5
4F
102
{ACAD_REACTORS
330
47
102
}
330
47
100
AcDbScale
 70
     0
300
1:20
140
1.0
141
20.0
290
     0
  0
SCALE
  5
50
102
{ACAD_REACTORS
330
47
102
}
330
47
100
AcDbScale
 70
     0
300
1:30
140
1.0
141
30.0
290
     0
  0
SCALE
  5
51
102
{ACAD_REACTORS
330
47
102
}
330
47
100
AcDbScale
 70
     0
300
1:40
140
1.0
141
40.0
290
     0
  0
SCALE
  5
52
102
{ACAD_REACTORS
330
47
102
}
330
47
100
AcDbScale
 70
     0
300
1:50
140
1.0
141
50.0
290
     0
  0
SCALE
  5
53
102
{ACAD_REACTORS
330
47
102
}
330
47
100
AcDbScale
 70
     0
300
1:100
140
1.0
141
100.0
290
     0
  0
SCALE
  5
54
102
{ACAD_REACTORS
330
47
102
}
330
47
100
AcDbScale
 70
     0
300
2:1
140
2.0
141
1.0
290
     0
  0
SCALE
  5
55
102
{ACAD_REACTORS
330
47
102
}
330
47
100
AcDbScale
 70
     0
300
4:1
140
4.0
141
1.0
290
     0
  0
SCALE
  5
56
102
{ACAD_REACTORS
330
47
102
}
330
47
100
AcDbScale
 70
     0
300
8:1
140
8.0
141
1.0
290
     0
  0
SCALE
  5
57
102
{ACAD_REACTORS
330
47
102
}
330
47
100
AcDbScale
 70
     0
300
10:1
140
10.0
141
1.0
290
     0
  0
SCALE
  5
58
102
{ACAD_REACTORS
330
47
102
}
330
47
100
AcDbScale
 70
     0
300
100:1
140
100.0
141
1.0
290
     0
  0
SCALE
  5
59
102
{ACAD_REACTORS
330
47
102
}
330
47
100
AcDbScale
 70
     0
300
1/128" = 1'-0"
140
0.0078125
141
12.0
290
     0
  0
SCALE
  5
5A
102
{ACAD_REACTORS
330
47
102
}
330
47
100
AcDbScale
 70
     0
300
1/64" = 1'-0"
140
0.015625
141
12.0
290
     0
  0
SCALE
  5
5B
102
{ACAD_REACTORS
330
47
102
}
330
47
100
AcDbScale
 70
     0
300
1/32" = 1'-0"
140
0.03125
141
12.0
290
     0
  0
SCALE
  5
5C
102
{ACAD_REACTORS
330
47
102
}
330
47
100
AcDbScale
 70
     0
300
1/16" = 1'-0"
140
0.0625
141
12.0
290
     0
  0
SCALE
  5
5D
102
{ACAD_REACTORS
330
47
102
}
330
47
100
AcDbScale
 70
     0
300
3/32" = 1'-0"
140
0.09375
141
12.0
290
     0
  0
SCALE
  5
5E
102
{ACAD_REACTORS
330
47
102
}
330
47
100
AcDbScale
 70
     0
300
1/8" = 1'-0"
140
0.125
141
12.0
290
     0
  0
SCALE
  5
5F
102
{ACAD_REACTORS
330
47
102
}
330
47
100
AcDbScale
 70
     0
300
3/16" = 1'-0"
140
0.1875
141
12.0
290
     0
  0
SCALE
  5
60
102
{ACAD_REACTORS
330
47
102
}
330
47
100
AcDbScale
 70
     0
300
1/4" = 1'-0"
140
0.25
141
12.0
290
     0
  0
SCALE
  5
61
102
{ACAD_REACTORS
330
47
102
}
330
47
100
AcDbScale
 70
     0
300
3/8" = 1'-0"
140
0.375
141
12.0
290
     0
  0
SCALE
  5
62
102
{ACAD_REACTORS
330
47
102
}
330
47
100
AcDbScale
 70
     0
300
1/2" = 1'-0"
140
0.5
141
12.0
290
     0
  0
SCALE
  5
63
102
{ACAD_REACTORS
330
47
102
}
330
47
100
AcDbScale
 70
     0
300
3/4" = 1'-0"
140
0.75
141
12.0
290
     0
  0
SCALE
  5
64
102
{ACAD_REACTORS
330
47
102
}
330
47
100
AcDbScale
 70
     0
300
1" = 1'-0"
140
1.0
141
12.0
290
     0
  0
SCALE
  5
65
102
{ACAD_REACTORS
330
47
102
}
330
47
100
AcDbScale
 70
     0
300
1-1/2" = 1'-0"
140
1.5
141
12.0
290
     0
  0
SCALE
  5
66
102
{ACAD_REACTORS
330
47
102
}
330
47
100
AcDbScale
 70
     0
300
3" = 1'-0"
140
3.0
141
12.0
290
     0
  0
SCALE
  5
67
102
{ACAD_REACTORS
330
47
102
}
330
47
100
AcDbScale
 70
     0
300
6" = 1'-0"
140
6.0
141
12.0
290
     0
  0
SCALE
  5
68
102
{ACAD_REACTORS
330
47
102
}
330
47
100
AcDbScale
 70
     0
300
1'-0" = 1'-0"
140
12.0
141
12.0
290
     0
  0
ENDSEC
  0
EOF
