ISO-10303-21;
HEADER;
/* Generated by software containing ST-Developer
 * from STEP Tools, Inc. (www.steptools.com) 
 */

FILE_DESCRIPTION(
/* description */ (''),
/* implementation_level */ '2;1');

FILE_NAME(
/* name */ 'SSA.500-Cap-M.step',
/* time_stamp */ '2025-11-25T12:10:58-06:00',
/* author */ (''),
/* organization */ (''),
/* preprocessor_version */ 'ST-DEVELOPER v20.1',
/* originating_system */ 'Autodesk Translation Framework v14.21.0.0',
/* authorisation */ '');

FILE_SCHEMA (('AUTOMOTIVE_DESIGN { 1 0 10303 214 3 1 1 }'));
ENDSEC;

DATA;
#10=MECHANICAL_DESIGN_GEOMETRIC_PRESENTATION_REPRESENTATION('',(#13),#510);
#11=SHAPE_REPRESENTATION_RELATIONSHIP('SRR','None',#520,#12);
#12=ADVANCED_BREP_SHAPE_REPRESENTATION('',(#14),#509);
#13=STYLED_ITEM('',(#530),#14);
#14=MANIFOLD_SOLID_BREP('Body1',#277);
#15=CYLINDRICAL_SURFACE('',#297,0.1315);
#16=CYLINDRICAL_SURFACE('',#303,0.25);
#17=CYLINDRICAL_SURFACE('',#313,0.195);
#18=CYLINDRICAL_SURFACE('',#320,0.3735);
#19=CYLINDRICAL_SURFACE('',#324,0.245);
#20=FACE_BOUND('',#50,.T.);
#21=FACE_BOUND('',#56,.T.);
#22=FACE_BOUND('',#60,.T.);
#23=FACE_BOUND('',#64,.T.);
#24=FACE_BOUND('',#70,.T.);
#25=PLANE('',#295);
#26=PLANE('',#307);
#27=PLANE('',#314);
#28=PLANE('',#322);
#29=PLANE('',#331);
#30=FACE_OUTER_BOUND('',#48,.T.);
#31=FACE_OUTER_BOUND('',#49,.T.);
#32=FACE_OUTER_BOUND('',#51,.T.);
#33=FACE_OUTER_BOUND('',#52,.T.);
#34=FACE_OUTER_BOUND('',#53,.T.);
#35=FACE_OUTER_BOUND('',#54,.T.);
#36=FACE_OUTER_BOUND('',#55,.T.);
#37=FACE_OUTER_BOUND('',#57,.T.);
#38=FACE_OUTER_BOUND('',#58,.T.);
#39=FACE_OUTER_BOUND('',#59,.T.);
#40=FACE_OUTER_BOUND('',#61,.T.);
#41=FACE_OUTER_BOUND('',#62,.T.);
#42=FACE_OUTER_BOUND('',#63,.T.);
#43=FACE_OUTER_BOUND('',#65,.T.);
#44=FACE_OUTER_BOUND('',#66,.T.);
#45=FACE_OUTER_BOUND('',#67,.T.);
#46=FACE_OUTER_BOUND('',#68,.T.);
#47=FACE_OUTER_BOUND('',#69,.T.);
#48=EDGE_LOOP('',(#179,#180,#181,#182,#183));
#49=EDGE_LOOP('',(#184));
#50=EDGE_LOOP('',(#185));
#51=EDGE_LOOP('',(#186,#187,#188,#189,#190,#191));
#52=EDGE_LOOP('',(#192,#193,#194,#195,#196));
#53=EDGE_LOOP('',(#197,#198,#199,#200,#201));
#54=EDGE_LOOP('',(#202,#203,#204,#205,#206));
#55=EDGE_LOOP('',(#207));
#56=EDGE_LOOP('',(#208));
#57=EDGE_LOOP('',(#209,#210,#211,#212,#213));
#58=EDGE_LOOP('',(#214,#215,#216,#217,#218));
#59=EDGE_LOOP('',(#219));
#60=EDGE_LOOP('',(#220));
#61=EDGE_LOOP('',(#221,#222,#223,#224,#225));
#62=EDGE_LOOP('',(#226,#227,#228,#229,#230));
#63=EDGE_LOOP('',(#231));
#64=EDGE_LOOP('',(#232));
#65=EDGE_LOOP('',(#233,#234,#235,#236));
#66=EDGE_LOOP('',(#237,#238,#239,#240));
#67=EDGE_LOOP('',(#241,#242,#243,#244));
#68=EDGE_LOOP('',(#245,#246,#247,#248));
#69=EDGE_LOOP('',(#249));
#70=EDGE_LOOP('',(#250));
#71=LINE('',#436,#84);
#72=LINE('',#443,#85);
#73=LINE('',#449,#86);
#74=LINE('',#455,#87);
#75=LINE('',#460,#88);
#76=LINE('',#468,#89);
#77=LINE('',#473,#90);
#78=LINE('',#481,#91);
#79=LINE('',#487,#92);
#80=LINE('',#496,#93);
#81=LINE('',#499,#94);
#82=LINE('',#501,#95);
#83=LINE('',#504,#96);
#84=VECTOR('',#340,0.1365);
#85=VECTOR('',#349,0.1315);
#86=VECTOR('',#356,0.245);
#87=VECTOR('',#363,0.25);
#88=VECTOR('',#370,0.1365);
#89=VECTOR('',#379,0.2);
#90=VECTOR('',#386,0.195);
#91=VECTOR('',#395,0.3685);
#92=VECTOR('',#402,0.3735);
#93=VECTOR('',#413,0.245);
#94=VECTOR('',#418,0.2475);
#95=VECTOR('',#421,0.302);
#96=VECTOR('',#424,0.257499999999794);
#97=CIRCLE('',#292,0.1315);
#98=CIRCLE('',#293,0.1315);
#99=CIRCLE('',#294,0.1415);
#100=CIRCLE('',#296,0.24);
#101=CIRCLE('',#298,0.1315);
#102=CIRCLE('',#299,0.1315);
#103=CIRCLE('',#301,0.25);
#104=CIRCLE('',#302,0.25);
#105=CIRCLE('',#304,0.25);
#106=CIRCLE('',#306,0.1415);
#107=CIRCLE('',#308,0.195);
#108=CIRCLE('',#310,0.205);
#109=CIRCLE('',#311,0.195);
#110=CIRCLE('',#312,0.195);
#111=CIRCLE('',#315,0.2305);
#112=CIRCLE('',#317,0.3635);
#113=CIRCLE('',#318,0.3735);
#114=CIRCLE('',#319,0.3735);
#115=CIRCLE('',#321,0.3735);
#116=CIRCLE('',#323,0.259999999999587);
#117=CIRCLE('',#325,0.245);
#118=CIRCLE('',#326,0.245);
#119=CIRCLE('',#330,0.255);
#120=VERTEX_POINT('',#431);
#121=VERTEX_POINT('',#432);
#122=VERTEX_POINT('',#435);
#123=VERTEX_POINT('',#439);
#124=VERTEX_POINT('',#442);
#125=VERTEX_POINT('',#444);
#126=VERTEX_POINT('',#448);
#127=VERTEX_POINT('',#450);
#128=VERTEX_POINT('',#454);
#129=VERTEX_POINT('',#458);
#130=VERTEX_POINT('',#462);
#131=VERTEX_POINT('',#465);
#132=VERTEX_POINT('',#467);
#133=VERTEX_POINT('',#469);
#134=VERTEX_POINT('',#475);
#135=VERTEX_POINT('',#478);
#136=VERTEX_POINT('',#480);
#137=VERTEX_POINT('',#482);
#138=VERTEX_POINT('',#486);
#139=VERTEX_POINT('',#490);
#140=VERTEX_POINT('',#493);
#141=VERTEX_POINT('',#495);
#142=VERTEX_POINT('',#503);
#143=EDGE_CURVE('',#120,#121,#97,.T.);
#144=EDGE_CURVE('',#121,#120,#98,.T.);
#145=EDGE_CURVE('',#120,#122,#71,.T.);
#146=EDGE_CURVE('',#122,#122,#99,.T.);
#147=EDGE_CURVE('',#123,#123,#100,.T.);
#148=EDGE_CURVE('',#121,#124,#72,.T.);
#149=EDGE_CURVE('',#125,#124,#101,.T.);
#150=EDGE_CURVE('',#124,#125,#102,.T.);
#151=EDGE_CURVE('',#123,#126,#73,.T.);
#152=EDGE_CURVE('',#126,#127,#103,.T.);
#153=EDGE_CURVE('',#127,#126,#104,.T.);
#154=EDGE_CURVE('',#127,#128,#74,.T.);
#155=EDGE_CURVE('',#128,#128,#105,.T.);
#156=EDGE_CURVE('',#129,#129,#106,.T.);
#157=EDGE_CURVE('',#129,#125,#75,.T.);
#158=EDGE_CURVE('',#130,#130,#107,.T.);
#159=EDGE_CURVE('',#131,#131,#108,.T.);
#160=EDGE_CURVE('',#131,#132,#76,.T.);
#161=EDGE_CURVE('',#132,#133,#109,.T.);
#162=EDGE_CURVE('',#133,#132,#110,.T.);
#163=EDGE_CURVE('',#130,#133,#77,.T.);
#164=EDGE_CURVE('',#134,#134,#111,.T.);
#165=EDGE_CURVE('',#135,#135,#112,.T.);
#166=EDGE_CURVE('',#135,#136,#78,.T.);
#167=EDGE_CURVE('',#136,#137,#113,.T.);
#168=EDGE_CURVE('',#137,#136,#114,.T.);
#169=EDGE_CURVE('',#137,#138,#79,.T.);
#170=EDGE_CURVE('',#138,#138,#115,.T.);
#171=EDGE_CURVE('',#139,#139,#116,.T.);
#172=EDGE_CURVE('',#140,#140,#117,.T.);
#173=EDGE_CURVE('',#140,#141,#80,.T.);
#174=EDGE_CURVE('',#141,#141,#118,.T.);
#175=EDGE_CURVE('',#128,#140,#81,.T.);
#176=EDGE_CURVE('',#138,#134,#82,.T.);
#177=EDGE_CURVE('',#139,#142,#83,.T.);
#178=EDGE_CURVE('',#142,#142,#119,.T.);
#179=ORIENTED_EDGE('',*,*,#143,.T.);
#180=ORIENTED_EDGE('',*,*,#144,.T.);
#181=ORIENTED_EDGE('',*,*,#145,.T.);
#182=ORIENTED_EDGE('',*,*,#146,.T.);
#183=ORIENTED_EDGE('',*,*,#145,.F.);
#184=ORIENTED_EDGE('',*,*,#147,.F.);
#185=ORIENTED_EDGE('',*,*,#146,.F.);
#186=ORIENTED_EDGE('',*,*,#143,.F.);
#187=ORIENTED_EDGE('',*,*,#144,.F.);
#188=ORIENTED_EDGE('',*,*,#148,.T.);
#189=ORIENTED_EDGE('',*,*,#149,.F.);
#190=ORIENTED_EDGE('',*,*,#150,.F.);
#191=ORIENTED_EDGE('',*,*,#148,.F.);
#192=ORIENTED_EDGE('',*,*,#147,.T.);
#193=ORIENTED_EDGE('',*,*,#151,.T.);
#194=ORIENTED_EDGE('',*,*,#152,.T.);
#195=ORIENTED_EDGE('',*,*,#153,.T.);
#196=ORIENTED_EDGE('',*,*,#151,.F.);
#197=ORIENTED_EDGE('',*,*,#152,.F.);
#198=ORIENTED_EDGE('',*,*,#153,.F.);
#199=ORIENTED_EDGE('',*,*,#154,.T.);
#200=ORIENTED_EDGE('',*,*,#155,.T.);
#201=ORIENTED_EDGE('',*,*,#154,.F.);
#202=ORIENTED_EDGE('',*,*,#156,.T.);
#203=ORIENTED_EDGE('',*,*,#157,.T.);
#204=ORIENTED_EDGE('',*,*,#149,.T.);
#205=ORIENTED_EDGE('',*,*,#150,.T.);
#206=ORIENTED_EDGE('',*,*,#157,.F.);
#207=ORIENTED_EDGE('',*,*,#158,.F.);
#208=ORIENTED_EDGE('',*,*,#156,.F.);
#209=ORIENTED_EDGE('',*,*,#159,.T.);
#210=ORIENTED_EDGE('',*,*,#160,.T.);
#211=ORIENTED_EDGE('',*,*,#161,.T.);
#212=ORIENTED_EDGE('',*,*,#162,.T.);
#213=ORIENTED_EDGE('',*,*,#160,.F.);
#214=ORIENTED_EDGE('',*,*,#158,.T.);
#215=ORIENTED_EDGE('',*,*,#163,.T.);
#216=ORIENTED_EDGE('',*,*,#161,.F.);
#217=ORIENTED_EDGE('',*,*,#162,.F.);
#218=ORIENTED_EDGE('',*,*,#163,.F.);
#219=ORIENTED_EDGE('',*,*,#164,.F.);
#220=ORIENTED_EDGE('',*,*,#159,.F.);
#221=ORIENTED_EDGE('',*,*,#165,.T.);
#222=ORIENTED_EDGE('',*,*,#166,.T.);
#223=ORIENTED_EDGE('',*,*,#167,.T.);
#224=ORIENTED_EDGE('',*,*,#168,.T.);
#225=ORIENTED_EDGE('',*,*,#166,.F.);
#226=ORIENTED_EDGE('',*,*,#167,.F.);
#227=ORIENTED_EDGE('',*,*,#168,.F.);
#228=ORIENTED_EDGE('',*,*,#169,.T.);
#229=ORIENTED_EDGE('',*,*,#170,.T.);
#230=ORIENTED_EDGE('',*,*,#169,.F.);
#231=ORIENTED_EDGE('',*,*,#165,.F.);
#232=ORIENTED_EDGE('',*,*,#171,.F.);
#233=ORIENTED_EDGE('',*,*,#172,.F.);
#234=ORIENTED_EDGE('',*,*,#173,.T.);
#235=ORIENTED_EDGE('',*,*,#174,.T.);
#236=ORIENTED_EDGE('',*,*,#173,.F.);
#237=ORIENTED_EDGE('',*,*,#155,.F.);
#238=ORIENTED_EDGE('',*,*,#175,.T.);
#239=ORIENTED_EDGE('',*,*,#172,.T.);
#240=ORIENTED_EDGE('',*,*,#175,.F.);
#241=ORIENTED_EDGE('',*,*,#170,.F.);
#242=ORIENTED_EDGE('',*,*,#176,.T.);
#243=ORIENTED_EDGE('',*,*,#164,.T.);
#244=ORIENTED_EDGE('',*,*,#176,.F.);
#245=ORIENTED_EDGE('',*,*,#171,.T.);
#246=ORIENTED_EDGE('',*,*,#177,.T.);
#247=ORIENTED_EDGE('',*,*,#178,.F.);
#248=ORIENTED_EDGE('',*,*,#177,.F.);
#249=ORIENTED_EDGE('',*,*,#178,.T.);
#250=ORIENTED_EDGE('',*,*,#174,.F.);
#251=CONICAL_SURFACE('',#291,0.1365,0.785398163397451);
#252=CONICAL_SURFACE('',#300,0.245,0.785398163397451);
#253=CONICAL_SURFACE('',#305,0.1365,0.785398163397448);
#254=CONICAL_SURFACE('',#309,0.2,0.78539816339745);
#255=CONICAL_SURFACE('',#316,0.3685,0.785398163397448);
#256=CONICAL_SURFACE('',#327,0.2475,0.785398163397448);
#257=CONICAL_SURFACE('',#328,0.302,0.785398163397449);
#258=CONICAL_SURFACE('',#329,0.257499999999794,0.785398163356165);
#259=ADVANCED_FACE('',(#30),#251,.F.);
#260=ADVANCED_FACE('',(#31,#20),#25,.T.);
#261=ADVANCED_FACE('',(#32),#15,.F.);
#262=ADVANCED_FACE('',(#33),#252,.T.);
#263=ADVANCED_FACE('',(#34),#16,.T.);
#264=ADVANCED_FACE('',(#35),#253,.F.);
#265=ADVANCED_FACE('',(#36,#21),#26,.T.);
#266=ADVANCED_FACE('',(#37),#254,.F.);
#267=ADVANCED_FACE('',(#38),#17,.F.);
#268=ADVANCED_FACE('',(#39,#22),#27,.T.);
#269=ADVANCED_FACE('',(#40),#255,.T.);
#270=ADVANCED_FACE('',(#41),#18,.T.);
#271=ADVANCED_FACE('',(#42,#23),#28,.T.);
#272=ADVANCED_FACE('',(#43),#19,.T.);
#273=ADVANCED_FACE('',(#44),#256,.T.);
#274=ADVANCED_FACE('',(#45),#257,.T.);
#275=ADVANCED_FACE('',(#46),#258,.F.);
#276=ADVANCED_FACE('',(#47,#24),#29,.T.);
#277=CLOSED_SHELL('',(#259,#260,#261,#262,#263,#264,#265,#266,#267,#268,
#269,#270,#271,#272,#273,#274,#275,#276));
#278=DERIVED_UNIT_ELEMENT(#280,1.);
#279=DERIVED_UNIT_ELEMENT(#514,-3.);
#280=(
MASS_UNIT()
NAMED_UNIT(*)
SI_UNIT(.KILO.,.GRAM.)
);
#281=DERIVED_UNIT((#278,#279));
#282=MEASURE_REPRESENTATION_ITEM('density measure',
POSITIVE_RATIO_MEASURE(7850.),#281);
#283=PROPERTY_DEFINITION_REPRESENTATION(#288,#285);
#284=PROPERTY_DEFINITION_REPRESENTATION(#289,#286);
#285=REPRESENTATION('material name',(#287),#509);
#286=REPRESENTATION('density',(#282),#509);
#287=DESCRIPTIVE_REPRESENTATION_ITEM('Steel','Steel');
#288=PROPERTY_DEFINITION('material property','material name',#522);
#289=PROPERTY_DEFINITION('material property','density of part',#522);
#290=AXIS2_PLACEMENT_3D('',#429,#332,#333);
#291=AXIS2_PLACEMENT_3D('',#430,#334,#335);
#292=AXIS2_PLACEMENT_3D('',#433,#336,#337);
#293=AXIS2_PLACEMENT_3D('',#434,#338,#339);
#294=AXIS2_PLACEMENT_3D('',#437,#341,#342);
#295=AXIS2_PLACEMENT_3D('',#438,#343,#344);
#296=AXIS2_PLACEMENT_3D('',#440,#345,#346);
#297=AXIS2_PLACEMENT_3D('',#441,#347,#348);
#298=AXIS2_PLACEMENT_3D('',#445,#350,#351);
#299=AXIS2_PLACEMENT_3D('',#446,#352,#353);
#300=AXIS2_PLACEMENT_3D('',#447,#354,#355);
#301=AXIS2_PLACEMENT_3D('',#451,#357,#358);
#302=AXIS2_PLACEMENT_3D('',#452,#359,#360);
#303=AXIS2_PLACEMENT_3D('',#453,#361,#362);
#304=AXIS2_PLACEMENT_3D('',#456,#364,#365);
#305=AXIS2_PLACEMENT_3D('',#457,#366,#367);
#306=AXIS2_PLACEMENT_3D('',#459,#368,#369);
#307=AXIS2_PLACEMENT_3D('',#461,#371,#372);
#308=AXIS2_PLACEMENT_3D('',#463,#373,#374);
#309=AXIS2_PLACEMENT_3D('',#464,#375,#376);
#310=AXIS2_PLACEMENT_3D('',#466,#377,#378);
#311=AXIS2_PLACEMENT_3D('',#470,#380,#381);
#312=AXIS2_PLACEMENT_3D('',#471,#382,#383);
#313=AXIS2_PLACEMENT_3D('',#472,#384,#385);
#314=AXIS2_PLACEMENT_3D('',#474,#387,#388);
#315=AXIS2_PLACEMENT_3D('',#476,#389,#390);
#316=AXIS2_PLACEMENT_3D('',#477,#391,#392);
#317=AXIS2_PLACEMENT_3D('',#479,#393,#394);
#318=AXIS2_PLACEMENT_3D('',#483,#396,#397);
#319=AXIS2_PLACEMENT_3D('',#484,#398,#399);
#320=AXIS2_PLACEMENT_3D('',#485,#400,#401);
#321=AXIS2_PLACEMENT_3D('',#488,#403,#404);
#322=AXIS2_PLACEMENT_3D('',#489,#405,#406);
#323=AXIS2_PLACEMENT_3D('',#491,#407,#408);
#324=AXIS2_PLACEMENT_3D('',#492,#409,#410);
#325=AXIS2_PLACEMENT_3D('',#494,#411,#412);
#326=AXIS2_PLACEMENT_3D('',#497,#414,#415);
#327=AXIS2_PLACEMENT_3D('',#498,#416,#417);
#328=AXIS2_PLACEMENT_3D('',#500,#419,#420);
#329=AXIS2_PLACEMENT_3D('',#502,#422,#423);
#330=AXIS2_PLACEMENT_3D('',#505,#425,#426);
#331=AXIS2_PLACEMENT_3D('',#506,#427,#428);
#332=DIRECTION('axis',(0.,0.,1.));
#333=DIRECTION('refdir',(1.,0.,0.));
#334=DIRECTION('center_axis',(1.,0.,0.));
#335=DIRECTION('ref_axis',(0.,-1.,0.));
#336=DIRECTION('center_axis',(-1.,0.,0.));
#337=DIRECTION('ref_axis',(0.,-1.,0.));
#338=DIRECTION('center_axis',(-1.,0.,0.));
#339=DIRECTION('ref_axis',(0.,-1.,0.));
#340=DIRECTION('',(0.707106781186546,0.707106781186549,-8.65956056235495E-17));
#341=DIRECTION('center_axis',(1.,0.,0.));
#342=DIRECTION('ref_axis',(0.,-1.,0.));
#343=DIRECTION('center_axis',(1.,0.,0.));
#344=DIRECTION('ref_axis',(0.,0.,-1.));
#345=DIRECTION('center_axis',(-1.,0.,0.));
#346=DIRECTION('ref_axis',(0.,-1.,0.));
#347=DIRECTION('center_axis',(1.,0.,0.));
#348=DIRECTION('ref_axis',(0.,1.,0.));
#349=DIRECTION('',(-1.,0.,0.));
#350=DIRECTION('center_axis',(1.,0.,0.));
#351=DIRECTION('ref_axis',(0.,-1.,0.));
#352=DIRECTION('center_axis',(1.,0.,0.));
#353=DIRECTION('ref_axis',(0.,-1.,0.));
#354=DIRECTION('center_axis',(-1.,0.,0.));
#355=DIRECTION('ref_axis',(0.,-1.,0.));
#356=DIRECTION('',(-0.707106781186546,0.707106781186549,8.65956056235495E-17));
#357=DIRECTION('center_axis',(1.,0.,0.));
#358=DIRECTION('ref_axis',(0.,-1.,0.));
#359=DIRECTION('center_axis',(1.,0.,0.));
#360=DIRECTION('ref_axis',(0.,-1.,0.));
#361=DIRECTION('center_axis',(1.,0.,0.));
#362=DIRECTION('ref_axis',(0.,1.,0.));
#363=DIRECTION('',(-1.,0.,0.));
#364=DIRECTION('center_axis',(1.,0.,0.));
#365=DIRECTION('ref_axis',(0.,0.,-1.));
#366=DIRECTION('center_axis',(-1.,0.,0.));
#367=DIRECTION('ref_axis',(0.,-1.,0.));
#368=DIRECTION('center_axis',(-1.,0.,0.));
#369=DIRECTION('ref_axis',(0.,-1.,0.));
#370=DIRECTION('',(0.707106781186548,-0.707106781186548,8.65956056235493E-17));
#371=DIRECTION('center_axis',(-1.,0.,0.));
#372=DIRECTION('ref_axis',(0.,0.,1.));
#373=DIRECTION('center_axis',(1.,0.,0.));
#374=DIRECTION('ref_axis',(0.,0.,-1.));
#375=DIRECTION('center_axis',(-1.,0.,0.));
#376=DIRECTION('ref_axis',(0.,-1.,0.));
#377=DIRECTION('center_axis',(-1.,0.,0.));
#378=DIRECTION('ref_axis',(0.,-1.,0.));
#379=DIRECTION('',(0.707106781186547,-0.707106781186548,8.65956056235494E-17));
#380=DIRECTION('center_axis',(1.,0.,0.));
#381=DIRECTION('ref_axis',(0.,-1.,0.));
#382=DIRECTION('center_axis',(1.,0.,0.));
#383=DIRECTION('ref_axis',(0.,-1.,0.));
#384=DIRECTION('center_axis',(1.,0.,0.));
#385=DIRECTION('ref_axis',(0.,1.,0.));
#386=DIRECTION('',(-1.,0.,0.));
#387=DIRECTION('center_axis',(-1.,0.,0.));
#388=DIRECTION('ref_axis',(0.,0.,1.));
#389=DIRECTION('center_axis',(1.,0.,0.));
#390=DIRECTION('ref_axis',(0.,0.,-1.));
#391=DIRECTION('center_axis',(-1.,0.,0.));
#392=DIRECTION('ref_axis',(0.,-1.,0.));
#393=DIRECTION('center_axis',(-1.,0.,0.));
#394=DIRECTION('ref_axis',(0.,-1.,0.));
#395=DIRECTION('',(-0.707106781186548,0.707106781186548,8.65956056235493E-17));
#396=DIRECTION('center_axis',(1.,0.,0.));
#397=DIRECTION('ref_axis',(0.,-1.,0.));
#398=DIRECTION('center_axis',(1.,0.,0.));
#399=DIRECTION('ref_axis',(0.,-1.,0.));
#400=DIRECTION('center_axis',(1.,0.,0.));
#401=DIRECTION('ref_axis',(0.,1.,0.));
#402=DIRECTION('',(-1.,0.,0.));
#403=DIRECTION('center_axis',(1.,0.,0.));
#404=DIRECTION('ref_axis',(0.,0.,-1.));
#405=DIRECTION('center_axis',(1.,0.,0.));
#406=DIRECTION('ref_axis',(0.,0.,-1.));
#407=DIRECTION('center_axis',(1.,0.,0.));
#408=DIRECTION('ref_axis',(0.,0.,-1.));
#409=DIRECTION('center_axis',(1.,0.,0.));
#410=DIRECTION('ref_axis',(0.,1.,0.));
#411=DIRECTION('center_axis',(1.,0.,0.));
#412=DIRECTION('ref_axis',(0.,0.,-1.));
#413=DIRECTION('',(-1.,0.,0.));
#414=DIRECTION('center_axis',(1.,0.,0.));
#415=DIRECTION('ref_axis',(0.,0.,-1.));
#416=DIRECTION('center_axis',(1.,0.,0.));
#417=DIRECTION('ref_axis',(0.,1.,0.));
#418=DIRECTION('',(-0.707106781186547,0.707106781186547,8.65956056235493E-17));
#419=DIRECTION('center_axis',(1.,0.,0.));
#420=DIRECTION('ref_axis',(0.,1.,0.));
#421=DIRECTION('',(-0.707106781186547,0.707106781186548,8.65956056235494E-17));
#422=DIRECTION('center_axis',(1.,0.,0.));
#423=DIRECTION('ref_axis',(0.,1.,0.));
#424=DIRECTION('',(-0.70710678121574,0.707106781157356,8.65956056199743E-17));
#425=DIRECTION('center_axis',(1.,0.,0.));
#426=DIRECTION('ref_axis',(0.,0.,-1.));
#427=DIRECTION('center_axis',(1.,0.,0.));
#428=DIRECTION('ref_axis',(0.,0.,-1.));
#429=CARTESIAN_POINT('',(0.,0.,0.));
#430=CARTESIAN_POINT('Origin',(0.945,0.,0.));
#431=CARTESIAN_POINT('',(0.94,0.1315,-1.61041054087877E-17));
#432=CARTESIAN_POINT('',(0.94,-0.1315,-1.61041054087877E-17));
#433=CARTESIAN_POINT('Origin',(0.94,0.,0.));
#434=CARTESIAN_POINT('Origin',(0.94,0.,0.));
#435=CARTESIAN_POINT('',(0.95,0.1415,1.7328752207935E-17));
#436=CARTESIAN_POINT('',(0.945,0.1365,-1.67164288083614E-17));
#437=CARTESIAN_POINT('Origin',(0.95,0.,0.));
#438=CARTESIAN_POINT('Origin',(0.95,0.1315,0.));
#439=CARTESIAN_POINT('',(0.95,0.24,-2.93915231795365E-17));
#440=CARTESIAN_POINT('Origin',(0.95,0.,0.));
#441=CARTESIAN_POINT('Origin',(0.6075,0.,0.));
#442=CARTESIAN_POINT('',(0.275,-0.1315,-1.61041054087877E-17));
#443=CARTESIAN_POINT('',(0.6075,-0.1315,-1.61041054087877E-17));
#444=CARTESIAN_POINT('',(0.275,0.1315,1.61041054087877E-17));
#445=CARTESIAN_POINT('Origin',(0.275,0.,0.));
#446=CARTESIAN_POINT('Origin',(0.275,0.,0.));
#447=CARTESIAN_POINT('Origin',(0.945,0.,0.));
#448=CARTESIAN_POINT('',(0.94,0.25,3.06161699786838E-17));
#449=CARTESIAN_POINT('',(0.945,0.245,3.00038465791102E-17));
#450=CARTESIAN_POINT('',(0.94,-0.25,-3.06161699786838E-17));
#451=CARTESIAN_POINT('Origin',(0.94,0.,0.));
#452=CARTESIAN_POINT('Origin',(0.94,0.,0.));
#453=CARTESIAN_POINT('Origin',(0.602,0.,0.));
#454=CARTESIAN_POINT('',(0.254,-0.25,-3.06161699786838E-17));
#455=CARTESIAN_POINT('',(0.602,-0.25,-3.06161699786838E-17));
#456=CARTESIAN_POINT('Origin',(0.254,0.,0.));
#457=CARTESIAN_POINT('Origin',(0.27,0.,0.));
#458=CARTESIAN_POINT('',(0.265,0.1415,-1.7328752207935E-17));
#459=CARTESIAN_POINT('Origin',(0.265,0.,0.));
#460=CARTESIAN_POINT('',(0.27,0.1365,-1.67164288083614E-17));
#461=CARTESIAN_POINT('Origin',(0.265,0.195,0.));
#462=CARTESIAN_POINT('',(0.265,-0.195,-2.38806125833734E-17));
#463=CARTESIAN_POINT('Origin',(0.265,0.,0.));
#464=CARTESIAN_POINT('Origin',(0.00499999999999999,0.,0.));
#465=CARTESIAN_POINT('',(0.,0.205,-2.51052593825207E-17));
#466=CARTESIAN_POINT('Origin',(0.,0.,0.));
#467=CARTESIAN_POINT('',(0.00999999999999999,0.195,2.38806125833734E-17));
#468=CARTESIAN_POINT('',(0.00499999999999999,0.2,-2.44929359829471E-17));
#469=CARTESIAN_POINT('',(0.00999999999999999,-0.195,-2.38806125833734E-17));
#470=CARTESIAN_POINT('Origin',(0.00999999999999999,0.,0.));
#471=CARTESIAN_POINT('Origin',(0.00999999999999999,0.,0.));
#472=CARTESIAN_POINT('Origin',(0.1325,0.,0.));
#473=CARTESIAN_POINT('',(0.1325,-0.195,-2.38806125833734E-17));
#474=CARTESIAN_POINT('Origin',(0.,0.2305,0.));
#475=CARTESIAN_POINT('',(-1.09273919746571E-17,-0.2305,-2.82281087203465E-17));
#476=CARTESIAN_POINT('Origin',(0.,0.,0.));
#477=CARTESIAN_POINT('Origin',(0.239,0.,0.));
#478=CARTESIAN_POINT('',(0.244,0.3635,-4.45159111490063E-17));
#479=CARTESIAN_POINT('Origin',(0.244,0.,0.));
#480=CARTESIAN_POINT('',(0.234,0.3735,4.57405579481537E-17));
#481=CARTESIAN_POINT('',(0.239,0.3685,4.512823454858E-17));
#482=CARTESIAN_POINT('',(0.234,-0.3735,-4.57405579481537E-17));
#483=CARTESIAN_POINT('Origin',(0.234,0.,0.));
#484=CARTESIAN_POINT('Origin',(0.234,0.,0.));
#485=CARTESIAN_POINT('Origin',(0.1935,0.,0.));
#486=CARTESIAN_POINT('',(0.143,-0.3735,-4.57405579481537E-17));
#487=CARTESIAN_POINT('',(0.1935,-0.3735,-4.57405579481537E-17));
#488=CARTESIAN_POINT('Origin',(0.143,0.,0.));
#489=CARTESIAN_POINT('Origin',(0.244,0.259999999999587,0.));
#490=CARTESIAN_POINT('',(0.244,-0.259999999999587,-3.18408167777806E-17));
#491=CARTESIAN_POINT('Origin',(0.244,0.,0.));
#492=CARTESIAN_POINT('Origin',(0.244,0.,0.));
#493=CARTESIAN_POINT('',(0.249,-0.245,-3.00038465791101E-17));
#494=CARTESIAN_POINT('Origin',(0.249,0.,0.));
#495=CARTESIAN_POINT('',(0.239,-0.245,-3.00038465791101E-17));
#496=CARTESIAN_POINT('',(0.244,-0.245,-3.00038465791101E-17));
#497=CARTESIAN_POINT('Origin',(0.239,0.,0.));
#498=CARTESIAN_POINT('Origin',(0.2515,0.,0.));
#499=CARTESIAN_POINT('',(0.2515,-0.2475,-3.0310008278897E-17));
#500=CARTESIAN_POINT('Origin',(0.0715,0.,0.));
#501=CARTESIAN_POINT('',(0.0715,-0.302,-3.69843333342501E-17));
#502=CARTESIAN_POINT('Origin',(0.2415,0.,0.));
#503=CARTESIAN_POINT('',(0.239,-0.255,-3.12284933782575E-17));
#504=CARTESIAN_POINT('',(0.2415,-0.257499999999794,-3.15346550780191E-17));
#505=CARTESIAN_POINT('Origin',(0.239,0.,0.));
#506=CARTESIAN_POINT('Origin',(0.239,0.245,0.));
#507=UNCERTAINTY_MEASURE_WITH_UNIT(LENGTH_MEASURE(0.000393700787401575),
#512,'DISTANCE_ACCURACY_VALUE',
'Maximum model space distance between geometric entities at asserted c
onnectivities');
#508=UNCERTAINTY_MEASURE_WITH_UNIT(LENGTH_MEASURE(0.000393700787401575),
#512,'DISTANCE_ACCURACY_VALUE',
'Maximum model space distance between geometric entities at asserted c
onnectivities');
#509=(
GEOMETRIC_REPRESENTATION_CONTEXT(3)
GLOBAL_UNCERTAINTY_ASSIGNED_CONTEXT((#507))
GLOBAL_UNIT_ASSIGNED_CONTEXT((#512,#516,#517))
REPRESENTATION_CONTEXT('','3D')
);
#510=(
GEOMETRIC_REPRESENTATION_CONTEXT(3)
GLOBAL_UNCERTAINTY_ASSIGNED_CONTEXT((#508))
GLOBAL_UNIT_ASSIGNED_CONTEXT((#512,#516,#517))
REPRESENTATION_CONTEXT('','3D')
);
#511=DIMENSIONAL_EXPONENTS(1.,0.,0.,0.,0.,0.,0.);
#512=(
CONVERSION_BASED_UNIT('inch',#515)
LENGTH_UNIT()
NAMED_UNIT(#511)
);
#513=(
LENGTH_UNIT()
NAMED_UNIT(*)
SI_UNIT(.MILLI.,.METRE.)
);
#514=(
LENGTH_UNIT()
NAMED_UNIT(*)
SI_UNIT($,.METRE.)
);
#515=LENGTH_MEASURE_WITH_UNIT(LENGTH_MEASURE(25.4),#513);
#516=(
NAMED_UNIT(*)
PLANE_ANGLE_UNIT()
SI_UNIT($,.RADIAN.)
);
#517=(
NAMED_UNIT(*)
SI_UNIT($,.STERADIAN.)
SOLID_ANGLE_UNIT()
);
#518=SHAPE_DEFINITION_REPRESENTATION(#519,#520);
#519=PRODUCT_DEFINITION_SHAPE('',$,#522);
#520=SHAPE_REPRESENTATION('',(#290),#509);
#521=PRODUCT_DEFINITION_CONTEXT('part definition',#526,'design');
#522=PRODUCT_DEFINITION('SSA.500-Cap-M','SSA.500-Cap-M v1',#523,#521);
#523=PRODUCT_DEFINITION_FORMATION('',$,#528);
#524=PRODUCT_RELATED_PRODUCT_CATEGORY('SSA.500-Cap-M v1',
'SSA.500-Cap-M v1',(#528));
#525=APPLICATION_PROTOCOL_DEFINITION('international standard',
'automotive_design',2009,#526);
#526=APPLICATION_CONTEXT(
'Core Data for Automotive Mechanical Design Process');
#527=PRODUCT_CONTEXT('part definition',#526,'mechanical');
#528=PRODUCT('SSA.500-Cap-M','SSA.500-Cap-M v1',$,(#527));
#529=PRESENTATION_STYLE_ASSIGNMENT((#531));
#530=PRESENTATION_STYLE_ASSIGNMENT((#532));
#531=SURFACE_STYLE_USAGE(.BOTH.,#533);
#532=SURFACE_STYLE_USAGE(.BOTH.,#534);
#533=SURFACE_SIDE_STYLE('',(#535));
#534=SURFACE_SIDE_STYLE('',(#536));
#535=SURFACE_STYLE_FILL_AREA(#537);
#536=SURFACE_STYLE_FILL_AREA(#538);
#537=FILL_AREA_STYLE('Steel - Satin',(#539));
#538=FILL_AREA_STYLE('Opaque(44,44,44)',(#540));
#539=FILL_AREA_STYLE_COLOUR('Steel - Satin',#541);
#540=FILL_AREA_STYLE_COLOUR('Opaque(44,44,44)',#542);
#541=COLOUR_RGB('Steel - Satin',0.627450980392157,0.627450980392157,0.627450980392157);
#542=COLOUR_RGB('Opaque(44,44,44)',0.172549019607843,0.172549019607843,
0.172549019607843);
ENDSEC;
END-ISO-10303-21;
