ISO-10303-21;
HEADER;
/* Generated by software containing ST-Developer
 * from STEP Tools, Inc. (www.steptools.com) 
 */

FILE_DESCRIPTION(
/* description */ (''),
/* implementation_level */ '2;1');

FILE_NAME(
/* name */ '1310-.290-1-BR.step',
/* time_stamp */ '2025-11-21T11:39:39-06:00',
/* author */ (''),
/* organization */ (''),
/* preprocessor_version */ 'ST-DEVELOPER v20.1',
/* originating_system */ 'Autodesk Translation Framework v14.21.0.0',
/* authorisation */ '');

FILE_SCHEMA (('AUTOMOTIVE_DESIGN { 1 0 10303 214 3 1 1 }'));
ENDSEC;

DATA;
#10=MECHANICAL_DESIGN_GEOMETRIC_PRESENTATION_REPRESENTATION('',(#13),#292);
#11=SHAPE_REPRESENTATION_RELATIONSHIP('SRR','None',#302,#12);
#12=ADVANCED_BREP_SHAPE_REPRESENTATION('',(#14),#291);
#13=STYLED_ITEM('',(#311),#14);
#14=MANIFOLD_SOLID_BREP('Body1',#154);
#15=TOROIDAL_SURFACE('',#180,0.173818897637795,0.0787401574803149);
#16=CYLINDRICAL_SURFACE('',#173,0.1875);
#17=CYLINDRICAL_SURFACE('',#184,0.0950787401574804);
#18=CYLINDRICAL_SURFACE('',#188,0.145);
#19=PLANE('',#172);
#20=PLANE('',#175);
#21=FACE_OUTER_BOUND('',#31,.T.);
#22=FACE_OUTER_BOUND('',#32,.T.);
#23=FACE_OUTER_BOUND('',#33,.T.);
#24=FACE_OUTER_BOUND('',#34,.T.);
#25=FACE_OUTER_BOUND('',#35,.T.);
#26=FACE_OUTER_BOUND('',#36,.T.);
#27=FACE_OUTER_BOUND('',#37,.T.);
#28=FACE_OUTER_BOUND('',#38,.T.);
#29=FACE_OUTER_BOUND('',#39,.T.);
#30=FACE_OUTER_BOUND('',#40,.T.);
#31=EDGE_LOOP('',(#100,#101,#102,#103,#104));
#32=EDGE_LOOP('',(#105));
#33=EDGE_LOOP('',(#106,#107,#108,#109,#110));
#34=EDGE_LOOP('',(#111));
#35=EDGE_LOOP('',(#112,#113,#114,#115,#116));
#36=EDGE_LOOP('',(#117,#118,#119,#120,#121,#122));
#37=EDGE_LOOP('',(#123,#124,#125,#126,#127));
#38=EDGE_LOOP('',(#128,#129,#130,#131));
#39=EDGE_LOOP('',(#132,#133,#134,#135));
#40=EDGE_LOOP('',(#136,#137,#138,#139));
#41=LINE('',#253,#48);
#42=LINE('',#259,#49);
#43=LINE('',#267,#50);
#44=LINE('',#278,#51);
#45=LINE('',#282,#52);
#46=LINE('',#286,#53);
#47=LINE('',#288,#54);
#48=VECTOR('',#199,0.1775);
#49=VECTOR('',#208,0.1875);
#50=VECTOR('',#217,0.146563960480928);
#51=VECTOR('',#232,0.0950787401574804);
#52=VECTOR('',#237,0.12003937007874);
#53=VECTOR('',#242,0.145);
#54=VECTOR('',#245,0.12003937007874);
#55=CIRCLE('',#169,0.1875);
#56=CIRCLE('',#170,0.1875);
#57=CIRCLE('',#171,0.1675);
#58=CIRCLE('',#174,0.1875);
#59=CIRCLE('',#176,0.0950787401574803);
#60=CIRCLE('',#178,0.105627920961855);
#61=CIRCLE('',#179,0.105627920961855);
#62=CIRCLE('',#181,0.0787401574803149);
#63=CIRCLE('',#182,0.0950787401574805);
#64=CIRCLE('',#183,0.0950787401574805);
#65=CIRCLE('',#185,0.0950787401574803);
#66=CIRCLE('',#187,0.145);
#67=CIRCLE('',#189,0.145);
#68=VERTEX_POINT('',#248);
#69=VERTEX_POINT('',#249);
#70=VERTEX_POINT('',#252);
#71=VERTEX_POINT('',#257);
#72=VERTEX_POINT('',#261);
#73=VERTEX_POINT('',#264);
#74=VERTEX_POINT('',#265);
#75=VERTEX_POINT('',#270);
#76=VERTEX_POINT('',#272);
#77=VERTEX_POINT('',#276);
#78=VERTEX_POINT('',#280);
#79=VERTEX_POINT('',#284);
#80=EDGE_CURVE('',#68,#69,#55,.T.);
#81=EDGE_CURVE('',#69,#68,#56,.T.);
#82=EDGE_CURVE('',#68,#70,#41,.T.);
#83=EDGE_CURVE('',#70,#70,#57,.T.);
#84=EDGE_CURVE('',#71,#71,#58,.T.);
#85=EDGE_CURVE('',#71,#69,#42,.T.);
#86=EDGE_CURVE('',#72,#72,#59,.T.);
#87=EDGE_CURVE('',#73,#74,#60,.T.);
#88=EDGE_CURVE('',#73,#71,#43,.T.);
#89=EDGE_CURVE('',#74,#73,#61,.T.);
#90=EDGE_CURVE('',#74,#75,#62,.T.);
#91=EDGE_CURVE('',#76,#75,#63,.T.);
#92=EDGE_CURVE('',#75,#76,#64,.T.);
#93=EDGE_CURVE('',#77,#77,#65,.T.);
#94=EDGE_CURVE('',#77,#76,#44,.T.);
#95=EDGE_CURVE('',#78,#78,#66,.T.);
#96=EDGE_CURVE('',#78,#77,#45,.T.);
#97=EDGE_CURVE('',#79,#79,#67,.T.);
#98=EDGE_CURVE('',#79,#78,#46,.T.);
#99=EDGE_CURVE('',#72,#79,#47,.T.);
#100=ORIENTED_EDGE('',*,*,#80,.T.);
#101=ORIENTED_EDGE('',*,*,#81,.T.);
#102=ORIENTED_EDGE('',*,*,#82,.T.);
#103=ORIENTED_EDGE('',*,*,#83,.T.);
#104=ORIENTED_EDGE('',*,*,#82,.F.);
#105=ORIENTED_EDGE('',*,*,#83,.F.);
#106=ORIENTED_EDGE('',*,*,#84,.F.);
#107=ORIENTED_EDGE('',*,*,#85,.T.);
#108=ORIENTED_EDGE('',*,*,#80,.F.);
#109=ORIENTED_EDGE('',*,*,#81,.F.);
#110=ORIENTED_EDGE('',*,*,#85,.F.);
#111=ORIENTED_EDGE('',*,*,#86,.T.);
#112=ORIENTED_EDGE('',*,*,#87,.F.);
#113=ORIENTED_EDGE('',*,*,#88,.T.);
#114=ORIENTED_EDGE('',*,*,#84,.T.);
#115=ORIENTED_EDGE('',*,*,#88,.F.);
#116=ORIENTED_EDGE('',*,*,#89,.F.);
#117=ORIENTED_EDGE('',*,*,#87,.T.);
#118=ORIENTED_EDGE('',*,*,#90,.T.);
#119=ORIENTED_EDGE('',*,*,#91,.F.);
#120=ORIENTED_EDGE('',*,*,#92,.F.);
#121=ORIENTED_EDGE('',*,*,#90,.F.);
#122=ORIENTED_EDGE('',*,*,#89,.T.);
#123=ORIENTED_EDGE('',*,*,#93,.F.);
#124=ORIENTED_EDGE('',*,*,#94,.T.);
#125=ORIENTED_EDGE('',*,*,#91,.T.);
#126=ORIENTED_EDGE('',*,*,#92,.T.);
#127=ORIENTED_EDGE('',*,*,#94,.F.);
#128=ORIENTED_EDGE('',*,*,#95,.F.);
#129=ORIENTED_EDGE('',*,*,#96,.T.);
#130=ORIENTED_EDGE('',*,*,#93,.T.);
#131=ORIENTED_EDGE('',*,*,#96,.F.);
#132=ORIENTED_EDGE('',*,*,#97,.F.);
#133=ORIENTED_EDGE('',*,*,#98,.T.);
#134=ORIENTED_EDGE('',*,*,#95,.T.);
#135=ORIENTED_EDGE('',*,*,#98,.F.);
#136=ORIENTED_EDGE('',*,*,#86,.F.);
#137=ORIENTED_EDGE('',*,*,#99,.T.);
#138=ORIENTED_EDGE('',*,*,#97,.T.);
#139=ORIENTED_EDGE('',*,*,#99,.F.);
#140=CONICAL_SURFACE('',#168,0.1775,0.785398163397447);
#141=CONICAL_SURFACE('',#177,0.146563960480928,0.523598775598284);
#142=CONICAL_SURFACE('',#186,0.12003937007874,1.04719755119659);
#143=CONICAL_SURFACE('',#190,0.12003937007874,1.0471975511966);
#144=ADVANCED_FACE('',(#21),#140,.T.);
#145=ADVANCED_FACE('',(#22),#19,.T.);
#146=ADVANCED_FACE('',(#23),#16,.T.);
#147=ADVANCED_FACE('',(#24),#20,.T.);
#148=ADVANCED_FACE('',(#25),#141,.T.);
#149=ADVANCED_FACE('',(#26),#15,.F.);
#150=ADVANCED_FACE('',(#27),#17,.T.);
#151=ADVANCED_FACE('',(#28),#142,.T.);
#152=ADVANCED_FACE('',(#29),#18,.T.);
#153=ADVANCED_FACE('',(#30),#143,.T.);
#154=CLOSED_SHELL('',(#144,#145,#146,#147,#148,#149,#150,#151,#152,#153));
#155=DERIVED_UNIT_ELEMENT(#157,1.);
#156=DERIVED_UNIT_ELEMENT(#296,-3.);
#157=(
MASS_UNIT()
NAMED_UNIT(*)
SI_UNIT(.KILO.,.GRAM.)
);
#158=DERIVED_UNIT((#155,#156));
#159=MEASURE_REPRESENTATION_ITEM('density measure',
POSITIVE_RATIO_MEASURE(7850.),#158);
#160=PROPERTY_DEFINITION_REPRESENTATION(#165,#162);
#161=PROPERTY_DEFINITION_REPRESENTATION(#166,#163);
#162=REPRESENTATION('material name',(#164),#291);
#163=REPRESENTATION('density',(#159),#291);
#164=DESCRIPTIVE_REPRESENTATION_ITEM('Steel','Steel');
#165=PROPERTY_DEFINITION('material property','material name',#304);
#166=PROPERTY_DEFINITION('material property','density of part',#304);
#167=AXIS2_PLACEMENT_3D('',#246,#191,#192);
#168=AXIS2_PLACEMENT_3D('',#247,#193,#194);
#169=AXIS2_PLACEMENT_3D('',#250,#195,#196);
#170=AXIS2_PLACEMENT_3D('',#251,#197,#198);
#171=AXIS2_PLACEMENT_3D('',#254,#200,#201);
#172=AXIS2_PLACEMENT_3D('',#255,#202,#203);
#173=AXIS2_PLACEMENT_3D('',#256,#204,#205);
#174=AXIS2_PLACEMENT_3D('',#258,#206,#207);
#175=AXIS2_PLACEMENT_3D('',#260,#209,#210);
#176=AXIS2_PLACEMENT_3D('',#262,#211,#212);
#177=AXIS2_PLACEMENT_3D('',#263,#213,#214);
#178=AXIS2_PLACEMENT_3D('',#266,#215,#216);
#179=AXIS2_PLACEMENT_3D('',#268,#218,#219);
#180=AXIS2_PLACEMENT_3D('',#269,#220,#221);
#181=AXIS2_PLACEMENT_3D('',#271,#222,#223);
#182=AXIS2_PLACEMENT_3D('',#273,#224,#225);
#183=AXIS2_PLACEMENT_3D('',#274,#226,#227);
#184=AXIS2_PLACEMENT_3D('',#275,#228,#229);
#185=AXIS2_PLACEMENT_3D('',#277,#230,#231);
#186=AXIS2_PLACEMENT_3D('',#279,#233,#234);
#187=AXIS2_PLACEMENT_3D('',#281,#235,#236);
#188=AXIS2_PLACEMENT_3D('',#283,#238,#239);
#189=AXIS2_PLACEMENT_3D('',#285,#240,#241);
#190=AXIS2_PLACEMENT_3D('',#287,#243,#244);
#191=DIRECTION('axis',(0.,0.,1.));
#192=DIRECTION('refdir',(1.,0.,0.));
#193=DIRECTION('center_axis',(1.,0.,0.));
#194=DIRECTION('ref_axis',(0.,-1.,0.));
#195=DIRECTION('center_axis',(-1.,0.,0.));
#196=DIRECTION('ref_axis',(0.,-1.,0.));
#197=DIRECTION('center_axis',(-1.,0.,0.));
#198=DIRECTION('ref_axis',(0.,-1.,0.));
#199=DIRECTION('',(-0.707106781186549,-0.707106781186546,-8.65956056235492E-17));
#200=DIRECTION('center_axis',(1.,0.,0.));
#201=DIRECTION('ref_axis',(0.,-1.,0.));
#202=DIRECTION('center_axis',(-1.,0.,0.));
#203=DIRECTION('ref_axis',(0.,0.,1.));
#204=DIRECTION('center_axis',(1.,0.,0.));
#205=DIRECTION('ref_axis',(0.,1.,0.));
#206=DIRECTION('center_axis',(1.,0.,0.));
#207=DIRECTION('ref_axis',(0.,0.,-1.));
#208=DIRECTION('',(-1.,0.,0.));
#209=DIRECTION('center_axis',(1.,0.,0.));
#210=DIRECTION('ref_axis',(0.,0.,-1.));
#211=DIRECTION('center_axis',(1.,0.,0.));
#212=DIRECTION('ref_axis',(0.,0.,-1.));
#213=DIRECTION('center_axis',(-1.,0.,0.));
#214=DIRECTION('ref_axis',(0.,1.,0.));
#215=DIRECTION('center_axis',(1.,0.,0.));
#216=DIRECTION('ref_axis',(0.,0.,-1.));
#217=DIRECTION('',(-0.866025403784446,-0.499999999999988,-6.12323399573661E-17));
#218=DIRECTION('center_axis',(1.,0.,0.));
#219=DIRECTION('ref_axis',(0.,0.,-1.));
#220=DIRECTION('center_axis',(1.,0.,0.));
#221=DIRECTION('ref_axis',(0.,0.,-1.));
#222=DIRECTION('center_axis',(0.,-1.,-1.22464679914735E-16));
#223=DIRECTION('ref_axis',(0.,-1.22464679914735E-16,1.));
#224=DIRECTION('center_axis',(1.,0.,0.));
#225=DIRECTION('ref_axis',(0.,0.,-1.));
#226=DIRECTION('center_axis',(1.,0.,0.));
#227=DIRECTION('ref_axis',(0.,0.,-1.));
#228=DIRECTION('center_axis',(1.,0.,0.));
#229=DIRECTION('ref_axis',(0.,1.,0.));
#230=DIRECTION('center_axis',(1.,0.,0.));
#231=DIRECTION('ref_axis',(0.,0.,-1.));
#232=DIRECTION('',(-1.,0.,0.));
#233=DIRECTION('center_axis',(1.,0.,0.));
#234=DIRECTION('ref_axis',(0.,1.,0.));
#235=DIRECTION('center_axis',(1.,0.,0.));
#236=DIRECTION('ref_axis',(0.,0.,-1.));
#237=DIRECTION('',(-0.500000000000002,0.866025403784437,1.06057523872491E-16));
#238=DIRECTION('center_axis',(1.,0.,0.));
#239=DIRECTION('ref_axis',(0.,1.,0.));
#240=DIRECTION('center_axis',(1.,0.,0.));
#241=DIRECTION('ref_axis',(0.,0.,-1.));
#242=DIRECTION('',(-1.,0.,0.));
#243=DIRECTION('center_axis',(-1.,0.,0.));
#244=DIRECTION('ref_axis',(0.,1.,0.));
#245=DIRECTION('',(-0.499999999999998,-0.86602540378444,-1.06057523872491E-16));
#246=CARTESIAN_POINT('',(0.,0.,0.));
#247=CARTESIAN_POINT('Origin',(0.01,0.,0.));
#248=CARTESIAN_POINT('',(0.0200000000000001,0.1875,-2.29621274840129E-17));
#249=CARTESIAN_POINT('',(0.0200000000000001,-0.1875,-2.29621274840129E-17));
#250=CARTESIAN_POINT('Origin',(0.0200000000000001,0.,0.));
#251=CARTESIAN_POINT('Origin',(0.0200000000000001,0.,0.));
#252=CARTESIAN_POINT('',(0.,0.1675,2.05128338857182E-17));
#253=CARTESIAN_POINT('',(0.01,0.1775,2.17374806848655E-17));
#254=CARTESIAN_POINT('Origin',(0.,0.,0.));
#255=CARTESIAN_POINT('Origin',(0.,0.1875,0.));
#256=CARTESIAN_POINT('Origin',(0.982593512491629,0.,0.));
#257=CARTESIAN_POINT('',(1.96518702498326,-0.1875,-2.29621274840129E-17));
#258=CARTESIAN_POINT('Origin',(1.96518702498326,0.,0.));
#259=CARTESIAN_POINT('',(0.982593512491629,-0.1875,-2.29621274840129E-17));
#260=CARTESIAN_POINT('Origin',(3.,0.,0.));
#261=CARTESIAN_POINT('',(3.,-0.0950787401574802,-1.16437874800821E-17));
#262=CARTESIAN_POINT('Origin',(3.,0.,0.));
#263=CARTESIAN_POINT('Origin',(2.03609032529094,0.,0.));
#264=CARTESIAN_POINT('',(2.10699362559862,-0.105627920961855,-1.29356895306526E-17));
#265=CARTESIAN_POINT('',(2.10699362559862,-1.29356895306526E-17,0.105627920961855));
#266=CARTESIAN_POINT('Origin',(2.10699362559862,0.,0.));
#267=CARTESIAN_POINT('',(2.03609032529094,-0.146563960480928,-1.79489085073327E-17));
#268=CARTESIAN_POINT('Origin',(2.10699362559862,0.,0.));
#269=CARTESIAN_POINT('Origin',(2.14636370433878,0.,0.));
#270=CARTESIAN_POINT('',(2.14636370433878,-1.16437874800821E-17,0.0950787401574805));
#271=CARTESIAN_POINT('Origin',(2.14636370433878,-2.12866756623448E-17,0.173818897637795));
#272=CARTESIAN_POINT('',(2.14636370433878,-0.0950787401574804,-1.16437874800821E-17));
#273=CARTESIAN_POINT('Origin',(2.14636370433878,0.,0.));
#274=CARTESIAN_POINT('Origin',(2.14636370433878,0.,0.));
#275=CARTESIAN_POINT('Origin',(2.54337554739252,0.,0.));
#276=CARTESIAN_POINT('',(2.94038739044626,-0.0950787401574804,-1.16437874800821E-17));
#277=CARTESIAN_POINT('Origin',(2.94038739044626,0.,0.));
#278=CARTESIAN_POINT('',(2.54337554739252,-0.0950787401574804,-1.16437874800821E-17));
#279=CARTESIAN_POINT('Origin',(2.95479841685045,0.,0.));
#280=CARTESIAN_POINT('',(2.96920944325463,-0.145,-1.77573785876366E-17));
#281=CARTESIAN_POINT('Origin',(2.96920944325463,0.,0.));
#282=CARTESIAN_POINT('',(2.95479841685045,-0.12003937007874,-1.47005830338594E-17));
#283=CARTESIAN_POINT('Origin',(2.97019369522313,0.,0.));
#284=CARTESIAN_POINT('',(2.97117794719164,-0.145,-1.77573785876366E-17));
#285=CARTESIAN_POINT('Origin',(2.97117794719164,0.,0.));
#286=CARTESIAN_POINT('',(2.97019369522313,-0.145,-1.77573785876366E-17));
#287=CARTESIAN_POINT('Origin',(2.98558897359582,0.,0.));
#288=CARTESIAN_POINT('',(2.98558897359582,-0.12003937007874,-1.47005830338594E-17));
#289=UNCERTAINTY_MEASURE_WITH_UNIT(LENGTH_MEASURE(0.000393700787401575),
#294,'DISTANCE_ACCURACY_VALUE',
'Maximum model space distance between geometric entities at asserted c
onnectivities');
#290=UNCERTAINTY_MEASURE_WITH_UNIT(LENGTH_MEASURE(0.000393700787401575),
#294,'DISTANCE_ACCURACY_VALUE',
'Maximum model space distance between geometric entities at asserted c
onnectivities');
#291=(
GEOMETRIC_REPRESENTATION_CONTEXT(3)
GLOBAL_UNCERTAINTY_ASSIGNED_CONTEXT((#289))
GLOBAL_UNIT_ASSIGNED_CONTEXT((#294,#298,#299))
REPRESENTATION_CONTEXT('','3D')
);
#292=(
GEOMETRIC_REPRESENTATION_CONTEXT(3)
GLOBAL_UNCERTAINTY_ASSIGNED_CONTEXT((#290))
GLOBAL_UNIT_ASSIGNED_CONTEXT((#294,#298,#299))
REPRESENTATION_CONTEXT('','3D')
);
#293=DIMENSIONAL_EXPONENTS(1.,0.,0.,0.,0.,0.,0.);
#294=(
CONVERSION_BASED_UNIT('inch',#297)
LENGTH_UNIT()
NAMED_UNIT(#293)
);
#295=(
LENGTH_UNIT()
NAMED_UNIT(*)
SI_UNIT(.MILLI.,.METRE.)
);
#296=(
LENGTH_UNIT()
NAMED_UNIT(*)
SI_UNIT($,.METRE.)
);
#297=LENGTH_MEASURE_WITH_UNIT(LENGTH_MEASURE(25.4),#295);
#298=(
NAMED_UNIT(*)
PLANE_ANGLE_UNIT()
SI_UNIT($,.RADIAN.)
);
#299=(
NAMED_UNIT(*)
SI_UNIT($,.STERADIAN.)
SOLID_ANGLE_UNIT()
);
#300=SHAPE_DEFINITION_REPRESENTATION(#301,#302);
#301=PRODUCT_DEFINITION_SHAPE('',$,#304);
#302=SHAPE_REPRESENTATION('',(#167),#291);
#303=PRODUCT_DEFINITION_CONTEXT('part definition',#308,'design');
#304=PRODUCT_DEFINITION('1310-.290-1-BR','1310-.290-1-BR v5',#305,#303);
#305=PRODUCT_DEFINITION_FORMATION('',$,#310);
#306=PRODUCT_RELATED_PRODUCT_CATEGORY('1310-.290-1-BR v5',
'1310-.290-1-BR v5',(#310));
#307=APPLICATION_PROTOCOL_DEFINITION('international standard',
'automotive_design',2009,#308);
#308=APPLICATION_CONTEXT(
'Core Data for Automotive Mechanical Design Process');
#309=PRODUCT_CONTEXT('part definition',#308,'mechanical');
#310=PRODUCT('1310-.290-1-BR','1310-.290-1-BR v5',$,(#309));
#311=PRESENTATION_STYLE_ASSIGNMENT((#312));
#312=SURFACE_STYLE_USAGE(.BOTH.,#313);
#313=SURFACE_SIDE_STYLE('',(#314));
#314=SURFACE_STYLE_FILL_AREA(#315);
#315=FILL_AREA_STYLE('Steel - Satin',(#316));
#316=FILL_AREA_STYLE_COLOUR('Steel - Satin',#317);
#317=COLOUR_RGB('Steel - Satin',0.627450980392157,0.627450980392157,0.627450980392157);
ENDSEC;
END-ISO-10303-21;
