ISO-10303-21;
HEADER;
/* Generated by software containing ST-Developer
 * from STEP Tools, Inc. (www.steptools.com) 
 */

FILE_DESCRIPTION(
/* description */ (''),
/* implementation_level */ '2;1');

FILE_NAME(
/* name */ 'ER16-TA8-60.step',
/* time_stamp */ '2025-12-11T16:19:51-06:00',
/* author */ (''),
/* organization */ (''),
/* preprocessor_version */ 'ST-DEVELOPER v20.1',
/* originating_system */ 'Autodesk Translation Framework v14.21.0.0',
/* authorisation */ '');

FILE_SCHEMA (('AUTOMOTIVE_DESIGN { 1 0 10303 214 3 1 1 }'));
ENDSEC;

DATA;
#10=MECHANICAL_DESIGN_GEOMETRIC_PRESENTATION_REPRESENTATION('',(#146,#147,
#148,#149,#150,#151,#152,#153),#303);
#11=SHAPE_REPRESENTATION_RELATIONSHIP('SRR','None',#313,#12);
#12=ADVANCED_BREP_SHAPE_REPRESENTATION('',(#13),#302);
#13=MANIFOLD_SOLID_BREP('Body1',#166);
#14=FACE_BOUND('',#55,.T.);
#15=FACE_BOUND('',#58,.T.);
#16=FACE_BOUND('',#62,.T.);
#17=CYLINDRICAL_SURFACE('',#186,0.31496062992126);
#18=CYLINDRICAL_SURFACE('',#190,0.271);
#19=CYLINDRICAL_SURFACE('',#194,0.31496062992126);
#20=CYLINDRICAL_SURFACE('',#200,0.15748031496063);
#21=LINE('',#268,#28);
#22=LINE('',#272,#29);
#23=LINE('',#279,#30);
#24=LINE('',#286,#31);
#25=LINE('',#290,#32);
#26=LINE('',#297,#33);
#27=LINE('',#299,#34);
#28=VECTOR('',#217,0.268209721257509);
#29=VECTOR('',#222,0.31496062992126);
#30=VECTOR('',#231,0.271);
#31=VECTOR('',#240,0.31496062992126);
#32=VECTOR('',#245,0.27541213648177);
#33=VECTOR('',#254,0.15748031496063);
#34=VECTOR('',#257,0.14748031496063);
#35=CONICAL_SURFACE('',#184,0.268209721257509,0.139626340159547);
#36=CONICAL_SURFACE('',#196,0.27541213648177,0.523598775598299);
#37=CONICAL_SURFACE('',#202,0.14748031496063,0.785398163397451);
#38=FACE_OUTER_BOUND('',#50,.T.);
#39=FACE_OUTER_BOUND('',#51,.T.);
#40=FACE_OUTER_BOUND('',#52,.T.);
#41=FACE_OUTER_BOUND('',#53,.T.);
#42=FACE_OUTER_BOUND('',#54,.T.);
#43=FACE_OUTER_BOUND('',#56,.T.);
#44=FACE_OUTER_BOUND('',#57,.T.);
#45=FACE_OUTER_BOUND('',#59,.T.);
#46=FACE_OUTER_BOUND('',#60,.T.);
#47=FACE_OUTER_BOUND('',#61,.T.);
#48=FACE_OUTER_BOUND('',#63,.T.);
#49=FACE_OUTER_BOUND('',#64,.T.);
#50=EDGE_LOOP('',(#105));
#51=EDGE_LOOP('',(#106));
#52=EDGE_LOOP('',(#107,#108,#109,#110));
#53=EDGE_LOOP('',(#111,#112,#113,#114));
#54=EDGE_LOOP('',(#115));
#55=EDGE_LOOP('',(#116));
#56=EDGE_LOOP('',(#117,#118,#119,#120));
#57=EDGE_LOOP('',(#121));
#58=EDGE_LOOP('',(#122));
#59=EDGE_LOOP('',(#123,#124,#125,#126));
#60=EDGE_LOOP('',(#127,#128,#129,#130));
#61=EDGE_LOOP('',(#131));
#62=EDGE_LOOP('',(#132));
#63=EDGE_LOOP('',(#133,#134,#135,#136));
#64=EDGE_LOOP('',(#137,#138,#139,#140));
#65=CIRCLE('',#181,0.13748031496063);
#66=CIRCLE('',#183,0.221458812593759);
#67=CIRCLE('',#185,0.31496062992126);
#68=CIRCLE('',#187,0.31496062992126);
#69=CIRCLE('',#189,0.271);
#70=CIRCLE('',#191,0.271);
#71=CIRCLE('',#193,0.31496062992126);
#72=CIRCLE('',#195,0.31496062992126);
#73=CIRCLE('',#197,0.235863643042281);
#74=CIRCLE('',#199,0.15748031496063);
#75=CIRCLE('',#201,0.15748031496063);
#76=VERTEX_POINT('',#260);
#77=VERTEX_POINT('',#263);
#78=VERTEX_POINT('',#266);
#79=VERTEX_POINT('',#270);
#80=VERTEX_POINT('',#274);
#81=VERTEX_POINT('',#277);
#82=VERTEX_POINT('',#281);
#83=VERTEX_POINT('',#284);
#84=VERTEX_POINT('',#288);
#85=VERTEX_POINT('',#292);
#86=VERTEX_POINT('',#295);
#87=EDGE_CURVE('',#76,#76,#65,.T.);
#88=EDGE_CURVE('',#77,#77,#66,.T.);
#89=EDGE_CURVE('',#78,#78,#67,.T.);
#90=EDGE_CURVE('',#78,#77,#21,.T.);
#91=EDGE_CURVE('',#79,#79,#68,.T.);
#92=EDGE_CURVE('',#79,#78,#22,.T.);
#93=EDGE_CURVE('',#80,#80,#69,.T.);
#94=EDGE_CURVE('',#81,#81,#70,.T.);
#95=EDGE_CURVE('',#81,#80,#23,.T.);
#96=EDGE_CURVE('',#82,#82,#71,.T.);
#97=EDGE_CURVE('',#83,#83,#72,.T.);
#98=EDGE_CURVE('',#83,#82,#24,.T.);
#99=EDGE_CURVE('',#84,#84,#73,.T.);
#100=EDGE_CURVE('',#84,#83,#25,.T.);
#101=EDGE_CURVE('',#85,#85,#74,.T.);
#102=EDGE_CURVE('',#86,#86,#75,.T.);
#103=EDGE_CURVE('',#86,#85,#26,.T.);
#104=EDGE_CURVE('',#76,#86,#27,.T.);
#105=ORIENTED_EDGE('',*,*,#87,.T.);
#106=ORIENTED_EDGE('',*,*,#88,.F.);
#107=ORIENTED_EDGE('',*,*,#89,.F.);
#108=ORIENTED_EDGE('',*,*,#90,.T.);
#109=ORIENTED_EDGE('',*,*,#88,.T.);
#110=ORIENTED_EDGE('',*,*,#90,.F.);
#111=ORIENTED_EDGE('',*,*,#91,.F.);
#112=ORIENTED_EDGE('',*,*,#92,.T.);
#113=ORIENTED_EDGE('',*,*,#89,.T.);
#114=ORIENTED_EDGE('',*,*,#92,.F.);
#115=ORIENTED_EDGE('',*,*,#91,.T.);
#116=ORIENTED_EDGE('',*,*,#93,.F.);
#117=ORIENTED_EDGE('',*,*,#94,.F.);
#118=ORIENTED_EDGE('',*,*,#95,.T.);
#119=ORIENTED_EDGE('',*,*,#93,.T.);
#120=ORIENTED_EDGE('',*,*,#95,.F.);
#121=ORIENTED_EDGE('',*,*,#96,.F.);
#122=ORIENTED_EDGE('',*,*,#94,.T.);
#123=ORIENTED_EDGE('',*,*,#97,.F.);
#124=ORIENTED_EDGE('',*,*,#98,.T.);
#125=ORIENTED_EDGE('',*,*,#96,.T.);
#126=ORIENTED_EDGE('',*,*,#98,.F.);
#127=ORIENTED_EDGE('',*,*,#99,.F.);
#128=ORIENTED_EDGE('',*,*,#100,.T.);
#129=ORIENTED_EDGE('',*,*,#97,.T.);
#130=ORIENTED_EDGE('',*,*,#100,.F.);
#131=ORIENTED_EDGE('',*,*,#99,.T.);
#132=ORIENTED_EDGE('',*,*,#101,.F.);
#133=ORIENTED_EDGE('',*,*,#102,.F.);
#134=ORIENTED_EDGE('',*,*,#103,.T.);
#135=ORIENTED_EDGE('',*,*,#101,.T.);
#136=ORIENTED_EDGE('',*,*,#103,.F.);
#137=ORIENTED_EDGE('',*,*,#87,.F.);
#138=ORIENTED_EDGE('',*,*,#104,.T.);
#139=ORIENTED_EDGE('',*,*,#102,.T.);
#140=ORIENTED_EDGE('',*,*,#104,.F.);
#141=PLANE('',#180);
#142=PLANE('',#182);
#143=PLANE('',#188);
#144=PLANE('',#192);
#145=PLANE('',#198);
#146=STYLED_ITEM('',(#324),#154);
#147=STYLED_ITEM('',(#324),#155);
#148=STYLED_ITEM('',(#324),#158);
#149=STYLED_ITEM('',(#324),#159);
#150=STYLED_ITEM('',(#324),#160);
#151=STYLED_ITEM('',(#324),#163);
#152=STYLED_ITEM('',(#324),#165);
#153=STYLED_ITEM('',(#323),#13);
#154=ADVANCED_FACE('',(#38),#141,.T.);
#155=ADVANCED_FACE('',(#39),#142,.T.);
#156=ADVANCED_FACE('',(#40),#35,.T.);
#157=ADVANCED_FACE('',(#41),#17,.T.);
#158=ADVANCED_FACE('',(#42,#14),#143,.T.);
#159=ADVANCED_FACE('',(#43),#18,.T.);
#160=ADVANCED_FACE('',(#44,#15),#144,.T.);
#161=ADVANCED_FACE('',(#45),#19,.T.);
#162=ADVANCED_FACE('',(#46),#36,.T.);
#163=ADVANCED_FACE('',(#47,#16),#145,.T.);
#164=ADVANCED_FACE('',(#48),#20,.T.);
#165=ADVANCED_FACE('',(#49),#37,.T.);
#166=CLOSED_SHELL('',(#154,#155,#156,#157,#158,#159,#160,#161,#162,#163,
#164,#165));
#167=DERIVED_UNIT_ELEMENT(#169,1.);
#168=DERIVED_UNIT_ELEMENT(#307,-3.);
#169=(
MASS_UNIT()
NAMED_UNIT(*)
SI_UNIT(.KILO.,.GRAM.)
);
#170=DERIVED_UNIT((#167,#168));
#171=MEASURE_REPRESENTATION_ITEM('density measure',
POSITIVE_RATIO_MEASURE(7850.),#170);
#172=PROPERTY_DEFINITION_REPRESENTATION(#177,#174);
#173=PROPERTY_DEFINITION_REPRESENTATION(#178,#175);
#174=REPRESENTATION('material name',(#176),#302);
#175=REPRESENTATION('density',(#171),#302);
#176=DESCRIPTIVE_REPRESENTATION_ITEM('Steel','Steel');
#177=PROPERTY_DEFINITION('material property','material name',#315);
#178=PROPERTY_DEFINITION('material property','density of part',#315);
#179=AXIS2_PLACEMENT_3D('',#258,#203,#204);
#180=AXIS2_PLACEMENT_3D('',#259,#205,#206);
#181=AXIS2_PLACEMENT_3D('',#261,#207,#208);
#182=AXIS2_PLACEMENT_3D('',#262,#209,#210);
#183=AXIS2_PLACEMENT_3D('',#264,#211,#212);
#184=AXIS2_PLACEMENT_3D('',#265,#213,#214);
#185=AXIS2_PLACEMENT_3D('',#267,#215,#216);
#186=AXIS2_PLACEMENT_3D('',#269,#218,#219);
#187=AXIS2_PLACEMENT_3D('',#271,#220,#221);
#188=AXIS2_PLACEMENT_3D('',#273,#223,#224);
#189=AXIS2_PLACEMENT_3D('',#275,#225,#226);
#190=AXIS2_PLACEMENT_3D('',#276,#227,#228);
#191=AXIS2_PLACEMENT_3D('',#278,#229,#230);
#192=AXIS2_PLACEMENT_3D('',#280,#232,#233);
#193=AXIS2_PLACEMENT_3D('',#282,#234,#235);
#194=AXIS2_PLACEMENT_3D('',#283,#236,#237);
#195=AXIS2_PLACEMENT_3D('',#285,#238,#239);
#196=AXIS2_PLACEMENT_3D('',#287,#241,#242);
#197=AXIS2_PLACEMENT_3D('',#289,#243,#244);
#198=AXIS2_PLACEMENT_3D('',#291,#246,#247);
#199=AXIS2_PLACEMENT_3D('',#293,#248,#249);
#200=AXIS2_PLACEMENT_3D('',#294,#250,#251);
#201=AXIS2_PLACEMENT_3D('',#296,#252,#253);
#202=AXIS2_PLACEMENT_3D('',#298,#255,#256);
#203=DIRECTION('axis',(0.,0.,1.));
#204=DIRECTION('refdir',(1.,0.,0.));
#205=DIRECTION('center_axis',(1.,0.,0.));
#206=DIRECTION('ref_axis',(0.,0.,-1.));
#207=DIRECTION('center_axis',(1.,0.,0.));
#208=DIRECTION('ref_axis',(0.,0.,-1.));
#209=DIRECTION('center_axis',(-1.,0.,0.));
#210=DIRECTION('ref_axis',(0.,0.,1.));
#211=DIRECTION('center_axis',(1.,0.,0.));
#212=DIRECTION('ref_axis',(0.,0.,-1.));
#213=DIRECTION('center_axis',(1.,0.,0.));
#214=DIRECTION('ref_axis',(0.,1.,0.));
#215=DIRECTION('center_axis',(1.,0.,0.));
#216=DIRECTION('ref_axis',(0.,0.,-1.));
#217=DIRECTION('',(-0.99026806874157,0.139173100960066,1.70437892618156E-17));
#218=DIRECTION('center_axis',(1.,0.,0.));
#219=DIRECTION('ref_axis',(0.,1.,0.));
#220=DIRECTION('center_axis',(1.,0.,0.));
#221=DIRECTION('ref_axis',(0.,0.,-1.));
#222=DIRECTION('',(-1.,0.,0.));
#223=DIRECTION('center_axis',(1.,0.,0.));
#224=DIRECTION('ref_axis',(0.,0.,-1.));
#225=DIRECTION('center_axis',(1.,0.,0.));
#226=DIRECTION('ref_axis',(0.,0.,-1.));
#227=DIRECTION('center_axis',(1.,0.,0.));
#228=DIRECTION('ref_axis',(0.,1.,0.));
#229=DIRECTION('center_axis',(1.,0.,0.));
#230=DIRECTION('ref_axis',(0.,0.,-1.));
#231=DIRECTION('',(-1.,0.,0.));
#232=DIRECTION('center_axis',(-1.,0.,0.));
#233=DIRECTION('ref_axis',(0.,0.,1.));
#234=DIRECTION('center_axis',(1.,0.,0.));
#235=DIRECTION('ref_axis',(0.,0.,-1.));
#236=DIRECTION('center_axis',(1.,0.,0.));
#237=DIRECTION('ref_axis',(0.,1.,0.));
#238=DIRECTION('center_axis',(1.,0.,0.));
#239=DIRECTION('ref_axis',(0.,0.,-1.));
#240=DIRECTION('',(-1.,0.,0.));
#241=DIRECTION('center_axis',(-1.,0.,0.));
#242=DIRECTION('ref_axis',(0.,1.,0.));
#243=DIRECTION('center_axis',(1.,0.,0.));
#244=DIRECTION('ref_axis',(0.,0.,-1.));
#245=DIRECTION('',(-0.866025403784439,-0.5,-6.12323399573677E-17));
#246=DIRECTION('center_axis',(1.,0.,0.));
#247=DIRECTION('ref_axis',(0.,0.,-1.));
#248=DIRECTION('center_axis',(1.,0.,0.));
#249=DIRECTION('ref_axis',(0.,0.,-1.));
#250=DIRECTION('center_axis',(1.,0.,0.));
#251=DIRECTION('ref_axis',(0.,1.,0.));
#252=DIRECTION('center_axis',(1.,0.,0.));
#253=DIRECTION('ref_axis',(0.,0.,-1.));
#254=DIRECTION('',(-1.,0.,0.));
#255=DIRECTION('center_axis',(-1.,0.,0.));
#256=DIRECTION('ref_axis',(0.,1.,0.));
#257=DIRECTION('',(-0.707106781186546,-0.707106781186549,-8.65956056235496E-17));
#258=CARTESIAN_POINT('',(0.,0.,0.));
#259=CARTESIAN_POINT('Origin',(2.36220472440945,0.,0.));
#260=CARTESIAN_POINT('',(2.36220472440945,-0.13748031496063,-1.68364827662305E-17));
#261=CARTESIAN_POINT('Origin',(2.36220472440945,0.,0.));
#262=CARTESIAN_POINT('Origin',(-1.0838,0.221458812593759,0.));
#263=CARTESIAN_POINT('',(-1.0838,-0.221458812593759,-2.7120882598592E-17));
#264=CARTESIAN_POINT('Origin',(-1.0838,0.,0.));
#265=CARTESIAN_POINT('Origin',(-0.75115,0.,0.));
#266=CARTESIAN_POINT('',(-0.4185,-0.31496062992126,-3.85715527290505E-17));
#267=CARTESIAN_POINT('Origin',(-0.4185,0.,0.));
#268=CARTESIAN_POINT('',(-0.75115,-0.268209721257509,-3.28462176638212E-17));
#269=CARTESIAN_POINT('Origin',(-0.33975,0.,0.));
#270=CARTESIAN_POINT('',(-0.261,-0.31496062992126,-3.85715527290505E-17));
#271=CARTESIAN_POINT('Origin',(-0.261,0.,0.));
#272=CARTESIAN_POINT('',(-0.33975,-0.31496062992126,-3.85715527290505E-17));
#273=CARTESIAN_POINT('Origin',(-0.261,0.271,0.));
#274=CARTESIAN_POINT('',(-0.261,-0.271,-3.31879282568933E-17));
#275=CARTESIAN_POINT('Origin',(-0.261,0.,0.));
#276=CARTESIAN_POINT('Origin',(-0.2075,0.,0.));
#277=CARTESIAN_POINT('',(-0.154,-0.271,-3.31879282568933E-17));
#278=CARTESIAN_POINT('Origin',(-0.154,0.,0.));
#279=CARTESIAN_POINT('',(-0.2075,-0.271,-3.31879282568933E-17));
#280=CARTESIAN_POINT('Origin',(-0.154,0.31496062992126,0.));
#281=CARTESIAN_POINT('',(-0.154,-0.31496062992126,-3.85715527290505E-17));
#282=CARTESIAN_POINT('Origin',(-0.154,0.,0.));
#283=CARTESIAN_POINT('Origin',(-0.1455,0.,0.));
#284=CARTESIAN_POINT('',(-0.137,-0.31496062992126,-3.85715527290505E-17));
#285=CARTESIAN_POINT('Origin',(-0.137,0.,0.));
#286=CARTESIAN_POINT('',(-0.1455,-0.31496062992126,-3.85715527290505E-17));
#287=CARTESIAN_POINT('Origin',(-0.0684999999999999,0.,0.));
#288=CARTESIAN_POINT('',(0.,-0.235863643042281,-2.88849655486963E-17));
#289=CARTESIAN_POINT('Origin',(0.,0.,0.));
#290=CARTESIAN_POINT('',(-0.0684999999999999,-0.27541213648177,-3.37282591388734E-17));
#291=CARTESIAN_POINT('Origin',(0.,0.15748031496063,0.));
#292=CARTESIAN_POINT('',(0.,-0.15748031496063,-1.92857763645252E-17));
#293=CARTESIAN_POINT('Origin',(0.,0.,0.));
#294=CARTESIAN_POINT('Origin',(1.17110236220472,0.,0.));
#295=CARTESIAN_POINT('',(2.34220472440945,-0.15748031496063,-1.92857763645252E-17));
#296=CARTESIAN_POINT('Origin',(2.34220472440945,0.,0.));
#297=CARTESIAN_POINT('',(1.17110236220472,-0.15748031496063,-1.92857763645252E-17));
#298=CARTESIAN_POINT('Origin',(2.35220472440945,0.,0.));
#299=CARTESIAN_POINT('',(2.35220472440945,-0.14748031496063,-1.80611295653779E-17));
#300=UNCERTAINTY_MEASURE_WITH_UNIT(LENGTH_MEASURE(0.000393700787401575),
#305,'DISTANCE_ACCURACY_VALUE',
'Maximum model space distance between geometric entities at asserted c
onnectivities');
#301=UNCERTAINTY_MEASURE_WITH_UNIT(LENGTH_MEASURE(0.000393700787401575),
#305,'DISTANCE_ACCURACY_VALUE',
'Maximum model space distance between geometric entities at asserted c
onnectivities');
#302=(
GEOMETRIC_REPRESENTATION_CONTEXT(3)
GLOBAL_UNCERTAINTY_ASSIGNED_CONTEXT((#300))
GLOBAL_UNIT_ASSIGNED_CONTEXT((#305,#309,#310))
REPRESENTATION_CONTEXT('','3D')
);
#303=(
GEOMETRIC_REPRESENTATION_CONTEXT(3)
GLOBAL_UNCERTAINTY_ASSIGNED_CONTEXT((#301))
GLOBAL_UNIT_ASSIGNED_CONTEXT((#305,#309,#310))
REPRESENTATION_CONTEXT('','3D')
);
#304=DIMENSIONAL_EXPONENTS(1.,0.,0.,0.,0.,0.,0.);
#305=(
CONVERSION_BASED_UNIT('inch',#308)
LENGTH_UNIT()
NAMED_UNIT(#304)
);
#306=(
LENGTH_UNIT()
NAMED_UNIT(*)
SI_UNIT(.MILLI.,.METRE.)
);
#307=(
LENGTH_UNIT()
NAMED_UNIT(*)
SI_UNIT($,.METRE.)
);
#308=LENGTH_MEASURE_WITH_UNIT(LENGTH_MEASURE(25.4),#306);
#309=(
NAMED_UNIT(*)
PLANE_ANGLE_UNIT()
SI_UNIT($,.RADIAN.)
);
#310=(
NAMED_UNIT(*)
SI_UNIT($,.STERADIAN.)
SOLID_ANGLE_UNIT()
);
#311=SHAPE_DEFINITION_REPRESENTATION(#312,#313);
#312=PRODUCT_DEFINITION_SHAPE('',$,#315);
#313=SHAPE_REPRESENTATION('',(#179),#302);
#314=PRODUCT_DEFINITION_CONTEXT('part definition',#319,'design');
#315=PRODUCT_DEFINITION('ER16-TA8-60','ER16-TA8-60 v1',#316,#314);
#316=PRODUCT_DEFINITION_FORMATION('',$,#321);
#317=PRODUCT_RELATED_PRODUCT_CATEGORY('ER16-TA8-60 v1','ER16-TA8-60 v1',
(#321));
#318=APPLICATION_PROTOCOL_DEFINITION('international standard',
'automotive_design',2009,#319);
#319=APPLICATION_CONTEXT(
'Core Data for Automotive Mechanical Design Process');
#320=PRODUCT_CONTEXT('part definition',#319,'mechanical');
#321=PRODUCT('ER16-TA8-60','ER16-TA8-60 v1',$,(#320));
#322=PRESENTATION_STYLE_ASSIGNMENT((#325));
#323=PRESENTATION_STYLE_ASSIGNMENT((#326));
#324=PRESENTATION_STYLE_ASSIGNMENT((#327));
#325=SURFACE_STYLE_USAGE(.BOTH.,#328);
#326=SURFACE_STYLE_USAGE(.BOTH.,#329);
#327=SURFACE_STYLE_USAGE(.BOTH.,#330);
#328=SURFACE_SIDE_STYLE('',(#331));
#329=SURFACE_SIDE_STYLE('',(#332));
#330=SURFACE_SIDE_STYLE('',(#333));
#331=SURFACE_STYLE_FILL_AREA(#334);
#332=SURFACE_STYLE_FILL_AREA(#335);
#333=SURFACE_STYLE_FILL_AREA(#336);
#334=FILL_AREA_STYLE('Steel - Satin',(#337));
#335=FILL_AREA_STYLE('Opaque(255,255,255)',(#338));
#336=FILL_AREA_STYLE('Opaque(44,44,44)',(#339));
#337=FILL_AREA_STYLE_COLOUR('Steel - Satin',#340);
#338=FILL_AREA_STYLE_COLOUR('Opaque(255,255,255)',#341);
#339=FILL_AREA_STYLE_COLOUR('Opaque(44,44,44)',#342);
#340=COLOUR_RGB('Steel - Satin',0.627450980392157,0.627450980392157,0.627450980392157);
#341=COLOUR_RGB('Opaque(255,255,255)',1.,1.,1.);
#342=COLOUR_RGB('Opaque(44,44,44)',0.172549019607843,0.172549019607843,
0.172549019607843);
ENDSEC;
END-ISO-10303-21;
