0
SECTION
2
HEADER
9
$INSUNITS
70
1
9
$ACADVER
1
AC1014
9
$HANDSEED
5
FFFF
0
ENDSEC
0
SECTION
2
TABLES
0
TABLE
2
VPORT
5
8
100
AcDbSymbolTable
0
ENDTAB
0
TABLE
2
LTYPE
5
5
100
AcDbSymbolTable
0
LTYPE
5
14
100
AcDbSymbolTableRecord
100
AcDbLinetypeTableRecord
2
BYBLOCK
70
0
0
LTYPE
5
15
100
AcDbSymbolTableRecord
100
AcDbLinetypeTableRecord
2
BYLAYER
70
0
0
LTYPE
5
16
100
AcDbSymbolTableRecord
100
AcDbLinetypeTableRecord
2
DASHED
70
0
3
Dashed __ __ __ __ __ __ __ __ __ __ __ __ __ _
72
65
73
2
40
0.75
49
0.5
74
0
49
-0.25
74
0
0
ENDTAB
0
TABLE
2
LAYER
5
2
100
AcDbSymbolTable
70
2
0
LAYER
5
50
100
AcDbSymbolTableRecord
100
AcDbLayerTableRecord
2
0
70
0
62
7
6
CONTINUOUS
0
ENDTAB
0
TABLE
2
STYLE
5
3
100
AcDbSymbolTable
70
1
0
STYLE
5
11
100
AcDbSymbolTableRecord
100
AcDbTextStyleTableRecord
2
STANDARD
70
0
0
ENDTAB
0
TABLE
2
VIEW
5
6
100
AcDbSymbolTable
70
0
0
ENDTAB
0
TABLE
2
UCS
5
7
100
AcDbSymbolTable
70
0
0
ENDTAB
0
TABLE
2
APPID
5
9
100
AcDbSymbolTable
70
2
0
APPID
5
12
100
AcDbSymbolTableRecord
100
AcDbRegAppTableRecord
2
ACAD
70
0
0
ENDTAB
0
TABLE
2
DIMSTYLE
5
A
100
AcDbSymbolTable
70
1
0
ENDTAB
0
TABLE
2
BLOCK_RECORD
5
1
100
AcDbSymbolTable
70
1
0
BLOCK_RECORD
5
1F
100
AcDbSymbolTableRecord
100
AcDbBlockTableRecord
2
*MODEL_SPACE
0
BLOCK_RECORD
5
1B
100
AcDbSymbolTableRecord
100
AcDbBlockTableRecord
2
*PAPER_SPACE
0
ENDTAB
0
ENDSEC
0
SECTION
2
BLOCKS
0
BLOCK
5
20
100
AcDbEntity
100
AcDbBlockBegin
2
*MODEL_SPACE
0
ENDBLK
5
21
100
AcDbEntity
100
AcDbBlockEnd
0
BLOCK
5
1C
100
AcDbEntity
100
AcDbBlockBegin
2
*PAPER_SPACE
0
ENDBLK
5
1D
100
AcDbEntity
100
AcDbBlockEnd
0
ENDSEC
0
SECTION
2
ENTITIES
0
LINE
5
100
100
AcDbEntity
8
0
100
AcDbLine
10
1.6629999999999996
20
1.1935753736948203
30
0
11
1.6629999999999996
21
1.206
31
0
0
LINE
5
101
100
AcDbEntity
8
0
100
AcDbLine
10
1.6629999999999996
20
1.1935753736948203
30
0
11
1.6629999999999983
21
0.93199999999999994
31
0
0
LINE
5
102
100
AcDbEntity
8
0
100
AcDbLine
10
1.6629999999999983
20
-0.93199999999999994
30
0
11
1.6629999999999983
21
-1.1935753736948229
31
0
0
LINE
5
103
100
AcDbEntity
8
0
100
AcDbLine
10
1.6629999999999996
20
-1.206
30
0
11
1.6629999999999983
21
-1.1935753736948229
31
0
0
LINE
5
104
100
AcDbEntity
8
0
100
AcDbLine
10
2.4999999999999991
20
-1.206
30
0
11
2.4999999999999991
21
-1.1935753736948227
31
0
0
SPLINE
5
105
100
AcDbEntity
8
0
100
AcDbSpline
70
0
71
3
72
28
73
24
74
0
42
0.000000001
43
0.0000000001
44
0.0000000001
40
-1.7098491077325357
40
-1.7098491077325357
40
-1.7098491077325357
40
-1.7098491077325357
40
-1.6966311421382552
40
-1.6966311421382552
40
-1.6966311421382552
40
-1.5804528597715279
40
-1.5804528597715279
40
-1.4367759687475077
40
-1.4367759687475077
40
-1.2930979013056032
40
-1.2930979013056032
40
-1.1494198338636987
40
-1.1494198338636987
40
-1.0057417664217942
40
-1.0057417664217942
40
-0.86206369897988977
40
-0.86206369897988977
40
-0.71838680795586962
40
-0.71838680795586962
40
-0.60220852558914584
40
-0.60220852558914584
40
-0.60220852558914584
40
-0.58899055999546091
40
-0.58899055999546091
40
-0.58899055999546091
40
-0.58899055999546091
10
1.9314999999999996
20
-1.2059999999999997
30
0
10
1.9316332535569445
20
-1.205983426174509
30
0
10
1.9317665097715571
20
-1.2059668737620184
30
0
10
1.931899768648712
20
-1.2059503427672127
30
0
10
1.9330710372034345
20
-1.2058050448718127
30
0
10
1.9367377204599885
20
-1.2053440543021672
30
0
10
1.950586367966002
20
-1.2037510224764174
30
0
10
1.962127225428153
20
-1.2025016298618774
30
0
10
1.9887408491708247
20
-1.2001518935938726
30
0
10
2.005594860895425
20
-1.1988982564419211
30
0
10
2.0425458997105004
20
-1.1971269197351124
30
0
10
2.0626446105719283
20
-1.1966352827825191
30
0
10
2.1003553894280702
20
-1.1966352827825191
30
0
10
2.1204541002894981
20
-1.1971269197351124
30
0
10
2.1574051391045734
20
-1.1988982564419211
30
0
10
2.1742591508291738
20
-1.2001518935938726
30
0
10
2.2008727745718457
20
-1.202501629861878
30
0
10
2.2124136320339964
20
-1.2037510224764174
30
0
10
2.2262622795400095
20
-1.2053440543021672
30
0
10
2.2299289627965639
20
-1.2058050448718127
30
0
10
2.2311002313512867
20
-1.2059503427672127
30
0
10
2.2312334902284356
20
-1.2059668737620175
30
0
10
2.2313667464430602
20
-1.2059834261745097
30
0
10
2.2314999999999992
20
-1.2059999999999997
30
0
0
LINE
5
106
100
AcDbEntity
8
0
100
AcDbLine
10
2.7499999999999996
20
-1.1000000000000001
30
0
11
2.7499999999999996
21
1.1000000000000001
31
0
0
LINE
5
107
100
AcDbEntity
8
0
100
AcDbLine
10
2.4999999999999991
20
-1.1000000000000001
30
0
11
2.4999999999999991
21
-1.1935753736948227
31
0
0
LINE
5
108
100
AcDbEntity
8
0
100
AcDbLine
10
2.4999999999999991
20
1.1935753736948198
30
0
11
2.4999999999999991
21
1.1000000000000001
31
0
0
LINE
5
109
100
AcDbEntity
8
0
100
AcDbLine
10
2.4999999999999991
20
1.1935753736948198
30
0
11
2.4999999999999991
21
1.206
31
0
0
LINE
5
110
100
AcDbEntity
8
0
100
AcDbLine
10
-1.9099999999999999
20
-0.30096902229752298
30
0
11
-1.9099999999999999
21
0.30096902229752298
31
0
0
LINE
5
111
100
AcDbEntity
8
0
100
AcDbLine
10
0.079000000000000001
20
0.8840000000000009
30
0
11
0.079000000000000001
21
0.6349999999999999
31
0
0
LINE
5
112
100
AcDbEntity
8
0
100
AcDbLine
10
0.079000000000000001
20
-0.6349999999999999
30
0
11
0.079000000000000001
21
-0.8840000000000009
31
0
0
LINE
5
113
100
AcDbEntity
8
0
100
AcDbLine
10
1.6629999999999996
20
-1.206
30
0
11
1.9314999999999996
21
-1.2059999999999997
31
0
0
LINE
5
114
100
AcDbEntity
8
0
100
AcDbLine
10
2.2314999999999987
20
-1.2059999999999997
30
0
11
2.4999999999999991
21
-1.206
31
0
0
LINE
5
115
100
AcDbEntity
8
0
100
AcDbLine
10
2.4999999999999991
20
-1.1000000000000001
30
0
11
2.7499999999999996
21
-1.1000000000000001
31
0
0
LINE
5
116
100
AcDbEntity
8
0
100
AcDbLine
10
2.4999999999999991
20
1.1000000000000001
30
0
11
2.7499999999999996
21
1.1000000000000001
31
0
0
LINE
5
117
100
AcDbEntity
8
0
100
AcDbLine
10
1.6629999999999996
20
1.206
30
0
11
2.4999999999999991
21
1.206
31
0
0
LINE
5
118
100
AcDbEntity
8
0
100
AcDbLine
10
0.87449999999999894
20
0.89949999999999986
30
0
11
0.86999999999999944
21
0.90399999999999936
31
0
0
LINE
5
119
100
AcDbEntity
8
0
100
AcDbLine
10
0.87449999999999894
20
-0.89949999999999986
30
0
11
0.86999999999999944
21
-0.90399999999999958
31
0
0
LINE
5
120
100
AcDbEntity
8
0
100
AcDbLine
10
1.3720000000000001
20
-0.93199999999999994
30
0
11
1.6629999999999983
21
-0.93199999999999994
31
0
0
LINE
5
121
100
AcDbEntity
8
0
100
AcDbLine
10
1.3720000000000001
20
0.93199999999999994
30
0
11
1.6629999999999983
21
0.93199999999999994
31
0
0
LINE
5
122
100
AcDbEntity
8
0
100
AcDbLine
10
1.3395000000000001
20
-0.89949999999999963
30
0
11
1.3720000000000001
21
-0.93199999999999994
31
0
0
LINE
5
123
100
AcDbEntity
8
0
100
AcDbLine
10
1.3395000000000001
20
0.89949999999999963
30
0
11
1.3720000000000001
21
0.93199999999999994
31
0
0
LINE
5
124
100
AcDbEntity
8
0
100
AcDbLine
10
0.87449999999999894
20
-0.89949999999999986
30
0
11
1.3395000000000001
21
-0.89949999999999963
31
0
0
LINE
5
125
100
AcDbEntity
8
0
100
AcDbLine
10
0.87449999999999894
20
0.89949999999999986
30
0
11
1.3395000000000001
21
0.89949999999999963
31
0
0
LINE
5
126
100
AcDbEntity
8
0
100
AcDbLine
10
0.86999999999999944
20
0.90399999999999936
30
0
11
0.69000000000000006
21
0.90399999999999991
31
0
0
LINE
5
127
100
AcDbEntity
8
0
100
AcDbLine
10
0.86999999999999944
20
-0.90399999999999958
30
0
11
0.69000000000000006
21
-0.90399999999999991
31
0
0
ARC
5
128
100
AcDbEntity
8
0
100
AcDbCircle
10
-1.845
20
-0.30096902229752298
30
0
40
0.064999999999999919
210
0
220
0
230
1
100
AcDbArc
50
180
51
262.02744751322922
0
ARC
5
129
100
AcDbEntity
8
0
100
AcDbCircle
10
-1.845
20
0.30096902229752298
30
0
40
0.064999999999999988
210
0
220
0
230
1
100
AcDbArc
50
97.97255248677078
51
180
0
LINE
5
130
100
AcDbEntity
8
0
100
AcDbLine
10
-1.8540154153445298
20
-0.36534077298185352
30
0
11
-3.4967654318902565e-16
21
-0.62499999999999989
31
0
0
LINE
5
131
100
AcDbEntity
8
0
100
AcDbLine
10
-1.8540154153445298
20
0.36534077298185352
30
0
11
-3.4967654318902565e-16
21
0.62499999999999989
31
0
0
LINE
5
132
100
AcDbEntity
8
0
100
AcDbLine
10
0.068999999999999895
20
0.62499999999999989
30
0
11
-3.4967654318902565e-16
21
0.62499999999999989
31
0
0
LINE
5
133
100
AcDbEntity
8
0
100
AcDbLine
10
0.068999999999999895
20
-0.62499999999999989
30
0
11
-3.4967654318902565e-16
21
-0.62499999999999989
31
0
0
LINE
5
134
100
AcDbEntity
8
0
100
AcDbLine
10
0.079000000000000001
20
0.8840000000000009
30
0
11
0.098999999999999519
21
0.90400000000000014
31
0
0
LINE
5
135
100
AcDbEntity
8
0
100
AcDbLine
10
0.079000000000000001
20
-0.8840000000000009
30
0
11
0.098999999999999519
21
-0.90400000000000014
31
0
0
LINE
5
136
100
AcDbEntity
8
0
100
AcDbLine
10
0.38899999999999996
20
0.90399999999999991
30
0
11
0.098999999999999519
21
0.90400000000000014
31
0
0
LINE
5
137
100
AcDbEntity
8
0
100
AcDbLine
10
0.38899999999999996
20
-0.90399999999999991
30
0
11
0.098999999999999519
21
-0.90400000000000014
31
0
0
LINE
5
138
100
AcDbEntity
8
0
100
AcDbLine
10
0.47199999999999992
20
0.745
30
0
11
0.38899999999999996
21
0.90399999999999991
31
0
0
LINE
5
139
100
AcDbEntity
8
0
100
AcDbLine
10
0.47199999999999992
20
-0.745
30
0
11
0.38899999999999996
21
-0.90399999999999991
31
0
0
LINE
5
140
100
AcDbEntity
8
0
100
AcDbLine
10
0.60699999999999998
20
0.745
30
0
11
0.47199999999999992
21
0.745
31
0
0
LINE
5
141
100
AcDbEntity
8
0
100
AcDbLine
10
0.60699999999999998
20
-0.745
30
0
11
0.47199999999999992
21
-0.745
31
0
0
LINE
5
142
100
AcDbEntity
8
0
100
AcDbLine
10
0.60699999999999998
20
0.745
30
0
11
0.69000000000000006
21
0.90399999999999991
31
0
0
LINE
5
143
100
AcDbEntity
8
0
100
AcDbLine
10
0.60699999999999998
20
-0.745
30
0
11
0.69000000000000006
21
-0.90399999999999991
31
0
0
ARC
5
144
100
AcDbEntity
8
0
100
AcDbCircle
10
0.069000000000000006
20
0.6349999999999999
30
0
40
0.010000000000000035
210
0
220
0
230
1
100
AcDbArc
50
-90.000000000000611
51
0
0
ARC
5
145
100
AcDbEntity
8
0
100
AcDbCircle
10
0.069000000000000006
20
-0.6349999999999999
30
0
40
0.0099999999999999898
210
0
220
0
230
1
100
AcDbArc
50
0
51
90.000000000000639
0
ENDSEC
0
SECTION
2
OBJECTS
0
DICTIONARY
5
C
100
AcDbDictionary
3
ACAD_GROUP
350
D
3
ACAD_MLINESTYLE
350
17
0
DICTIONARY
5
D
100
AcDbDictionary
0
DICTIONARY
5
1A
330
C
100
AcDbDictionary
0
DICTIONARY
5
17
100
AcDbDictionary
0
ENDSEC
0
EOF
