ISO-10303-21;
HEADER;
/* Generated by software containing ST-Developer
 * from STEP Tools, Inc. (www.steptools.com) 
 */

FILE_DESCRIPTION(
/* description */ (''),
/* implementation_level */ '2;1');

FILE_NAME(
/* name */ 'SSA10-Cap.step',
/* time_stamp */ '2025-05-16T07:49:21-05:00',
/* author */ (''),
/* organization */ (''),
/* preprocessor_version */ 'ST-DEVELOPER v20.1',
/* originating_system */ 'Autodesk Translation Framework v14.4.0.0',
/* authorisation */ '');

FILE_SCHEMA (('AUTOMOTIVE_DESIGN { 1 0 10303 214 3 1 1 }'));
ENDSEC;

DATA;
#10=MECHANICAL_DESIGN_GEOMETRIC_PRESENTATION_REPRESENTATION('',(#13),#400);
#11=SHAPE_REPRESENTATION_RELATIONSHIP('SRR','None',#410,#12);
#12=ADVANCED_BREP_SHAPE_REPRESENTATION('',(#14),#399);
#13=STYLED_ITEM('',(#420),#14);
#14=MANIFOLD_SOLID_BREP('Body1',#218);
#15=CYLINDRICAL_SURFACE('',#238,0.102);
#16=CYLINDRICAL_SURFACE('',#240,0.191850393700787);
#17=CYLINDRICAL_SURFACE('',#245,0.196850393700787);
#18=CYLINDRICAL_SURFACE('',#254,0.35);
#19=FACE_BOUND('',#44,.T.);
#20=FACE_BOUND('',#52,.T.);
#21=FACE_BOUND('',#57,.T.);
#22=FACE_BOUND('',#60,.T.);
#23=PLANE('',#236);
#24=PLANE('',#250);
#25=PLANE('',#258);
#26=PLANE('',#262);
#27=FACE_OUTER_BOUND('',#42,.T.);
#28=FACE_OUTER_BOUND('',#43,.T.);
#29=FACE_OUTER_BOUND('',#45,.T.);
#30=FACE_OUTER_BOUND('',#46,.T.);
#31=FACE_OUTER_BOUND('',#47,.T.);
#32=FACE_OUTER_BOUND('',#48,.T.);
#33=FACE_OUTER_BOUND('',#49,.T.);
#34=FACE_OUTER_BOUND('',#50,.T.);
#35=FACE_OUTER_BOUND('',#51,.T.);
#36=FACE_OUTER_BOUND('',#53,.T.);
#37=FACE_OUTER_BOUND('',#54,.T.);
#38=FACE_OUTER_BOUND('',#55,.T.);
#39=FACE_OUTER_BOUND('',#56,.T.);
#40=FACE_OUTER_BOUND('',#58,.T.);
#41=FACE_OUTER_BOUND('',#59,.T.);
#42=EDGE_LOOP('',(#142,#143,#144,#145,#146));
#43=EDGE_LOOP('',(#147));
#44=EDGE_LOOP('',(#148));
#45=EDGE_LOOP('',(#149,#150,#151,#152,#153));
#46=EDGE_LOOP('',(#154,#155,#156,#157));
#47=EDGE_LOOP('',(#158,#159,#160,#161));
#48=EDGE_LOOP('',(#162,#163,#164,#165));
#49=EDGE_LOOP('',(#166,#167,#168,#169));
#50=EDGE_LOOP('',(#170,#171,#172,#173));
#51=EDGE_LOOP('',(#174));
#52=EDGE_LOOP('',(#175));
#53=EDGE_LOOP('',(#176,#177,#178,#179));
#54=EDGE_LOOP('',(#180,#181,#182,#183));
#55=EDGE_LOOP('',(#184,#185,#186,#187));
#56=EDGE_LOOP('',(#188));
#57=EDGE_LOOP('',(#189));
#58=EDGE_LOOP('',(#190,#191,#192,#193));
#59=EDGE_LOOP('',(#194));
#60=EDGE_LOOP('',(#195));
#61=LINE('',#345,#72);
#62=LINE('',#352,#73);
#63=LINE('',#358,#74);
#64=LINE('',#363,#75);
#65=LINE('',#367,#76);
#66=LINE('',#369,#77);
#67=LINE('',#372,#78);
#68=LINE('',#380,#79);
#69=LINE('',#384,#80);
#70=LINE('',#388,#81);
#71=LINE('',#394,#82);
#72=VECTOR('',#271,0.107);
#73=VECTOR('',#280,0.102);
#74=VECTOR('',#287,0.191850393700787);
#75=VECTOR('',#294,0.194350393700787);
#76=VECTOR('',#299,0.196850393700787);
#77=VECTOR('',#302,0.191850393700787);
#78=VECTOR('',#305,0.151);
#79=VECTOR('',#316,0.3315);
#80=VECTOR('',#321,0.35);
#81=VECTOR('',#326,0.3475);
#82=VECTOR('',#333,0.209350393700787);
#83=CIRCLE('',#233,0.102);
#84=CIRCLE('',#234,0.102);
#85=CIRCLE('',#235,0.112);
#86=CIRCLE('',#237,0.186850393700787);
#87=CIRCLE('',#239,0.102);
#88=CIRCLE('',#241,0.191850393700787);
#89=CIRCLE('',#242,0.191850393700787);
#90=CIRCLE('',#244,0.196850393700787);
#91=CIRCLE('',#246,0.196850393700787);
#92=CIRCLE('',#249,0.2);
#93=CIRCLE('',#251,0.313);
#94=CIRCLE('',#253,0.35);
#95=CIRCLE('',#255,0.35);
#96=CIRCLE('',#257,0.345);
#97=CIRCLE('',#259,0.211850393700787);
#98=CIRCLE('',#261,0.206850393700787);
#99=VERTEX_POINT('',#340);
#100=VERTEX_POINT('',#341);
#101=VERTEX_POINT('',#344);
#102=VERTEX_POINT('',#348);
#103=VERTEX_POINT('',#351);
#104=VERTEX_POINT('',#355);
#105=VERTEX_POINT('',#357);
#106=VERTEX_POINT('',#361);
#107=VERTEX_POINT('',#365);
#108=VERTEX_POINT('',#371);
#109=VERTEX_POINT('',#375);
#110=VERTEX_POINT('',#378);
#111=VERTEX_POINT('',#382);
#112=VERTEX_POINT('',#386);
#113=VERTEX_POINT('',#390);
#114=VERTEX_POINT('',#393);
#115=EDGE_CURVE('',#99,#100,#83,.T.);
#116=EDGE_CURVE('',#100,#99,#84,.T.);
#117=EDGE_CURVE('',#99,#101,#61,.T.);
#118=EDGE_CURVE('',#101,#101,#85,.T.);
#119=EDGE_CURVE('',#102,#102,#86,.T.);
#120=EDGE_CURVE('',#100,#103,#62,.T.);
#121=EDGE_CURVE('',#103,#103,#87,.T.);
#122=EDGE_CURVE('',#104,#104,#88,.T.);
#123=EDGE_CURVE('',#104,#105,#63,.T.);
#124=EDGE_CURVE('',#105,#105,#89,.T.);
#125=EDGE_CURVE('',#106,#106,#90,.T.);
#126=EDGE_CURVE('',#106,#104,#64,.T.);
#127=EDGE_CURVE('',#107,#107,#91,.T.);
#128=EDGE_CURVE('',#107,#106,#65,.T.);
#129=EDGE_CURVE('',#102,#107,#66,.T.);
#130=EDGE_CURVE('',#103,#108,#67,.T.);
#131=EDGE_CURVE('',#108,#108,#92,.T.);
#132=EDGE_CURVE('',#109,#109,#93,.T.);
#133=EDGE_CURVE('',#110,#110,#94,.T.);
#134=EDGE_CURVE('',#110,#109,#68,.T.);
#135=EDGE_CURVE('',#111,#111,#95,.T.);
#136=EDGE_CURVE('',#111,#110,#69,.T.);
#137=EDGE_CURVE('',#112,#112,#96,.T.);
#138=EDGE_CURVE('',#112,#111,#70,.T.);
#139=EDGE_CURVE('',#113,#113,#97,.T.);
#140=EDGE_CURVE('',#113,#114,#71,.T.);
#141=EDGE_CURVE('',#114,#114,#98,.T.);
#142=ORIENTED_EDGE('',*,*,#115,.T.);
#143=ORIENTED_EDGE('',*,*,#116,.T.);
#144=ORIENTED_EDGE('',*,*,#117,.T.);
#145=ORIENTED_EDGE('',*,*,#118,.T.);
#146=ORIENTED_EDGE('',*,*,#117,.F.);
#147=ORIENTED_EDGE('',*,*,#119,.T.);
#148=ORIENTED_EDGE('',*,*,#118,.F.);
#149=ORIENTED_EDGE('',*,*,#115,.F.);
#150=ORIENTED_EDGE('',*,*,#116,.F.);
#151=ORIENTED_EDGE('',*,*,#120,.T.);
#152=ORIENTED_EDGE('',*,*,#121,.F.);
#153=ORIENTED_EDGE('',*,*,#120,.F.);
#154=ORIENTED_EDGE('',*,*,#122,.F.);
#155=ORIENTED_EDGE('',*,*,#123,.T.);
#156=ORIENTED_EDGE('',*,*,#124,.T.);
#157=ORIENTED_EDGE('',*,*,#123,.F.);
#158=ORIENTED_EDGE('',*,*,#125,.F.);
#159=ORIENTED_EDGE('',*,*,#126,.T.);
#160=ORIENTED_EDGE('',*,*,#122,.T.);
#161=ORIENTED_EDGE('',*,*,#126,.F.);
#162=ORIENTED_EDGE('',*,*,#127,.F.);
#163=ORIENTED_EDGE('',*,*,#128,.T.);
#164=ORIENTED_EDGE('',*,*,#125,.T.);
#165=ORIENTED_EDGE('',*,*,#128,.F.);
#166=ORIENTED_EDGE('',*,*,#119,.F.);
#167=ORIENTED_EDGE('',*,*,#129,.T.);
#168=ORIENTED_EDGE('',*,*,#127,.T.);
#169=ORIENTED_EDGE('',*,*,#129,.F.);
#170=ORIENTED_EDGE('',*,*,#121,.T.);
#171=ORIENTED_EDGE('',*,*,#130,.T.);
#172=ORIENTED_EDGE('',*,*,#131,.F.);
#173=ORIENTED_EDGE('',*,*,#130,.F.);
#174=ORIENTED_EDGE('',*,*,#132,.F.);
#175=ORIENTED_EDGE('',*,*,#131,.T.);
#176=ORIENTED_EDGE('',*,*,#133,.F.);
#177=ORIENTED_EDGE('',*,*,#134,.T.);
#178=ORIENTED_EDGE('',*,*,#132,.T.);
#179=ORIENTED_EDGE('',*,*,#134,.F.);
#180=ORIENTED_EDGE('',*,*,#135,.F.);
#181=ORIENTED_EDGE('',*,*,#136,.T.);
#182=ORIENTED_EDGE('',*,*,#133,.T.);
#183=ORIENTED_EDGE('',*,*,#136,.F.);
#184=ORIENTED_EDGE('',*,*,#137,.F.);
#185=ORIENTED_EDGE('',*,*,#138,.T.);
#186=ORIENTED_EDGE('',*,*,#135,.T.);
#187=ORIENTED_EDGE('',*,*,#138,.F.);
#188=ORIENTED_EDGE('',*,*,#137,.T.);
#189=ORIENTED_EDGE('',*,*,#139,.F.);
#190=ORIENTED_EDGE('',*,*,#139,.T.);
#191=ORIENTED_EDGE('',*,*,#140,.T.);
#192=ORIENTED_EDGE('',*,*,#141,.F.);
#193=ORIENTED_EDGE('',*,*,#140,.F.);
#194=ORIENTED_EDGE('',*,*,#141,.T.);
#195=ORIENTED_EDGE('',*,*,#124,.F.);
#196=CONICAL_SURFACE('',#232,0.107,0.785398163397446);
#197=CONICAL_SURFACE('',#243,0.194350393700787,0.785398163397451);
#198=CONICAL_SURFACE('',#247,0.191850393700787,0.785398163397446);
#199=CONICAL_SURFACE('',#248,0.151,0.715584993317675);
#200=CONICAL_SURFACE('',#252,0.3315,0.785398163397449);
#201=CONICAL_SURFACE('',#256,0.3475,0.785398163397451);
#202=CONICAL_SURFACE('',#260,0.209350393700787,0.785398163397448);
#203=ADVANCED_FACE('',(#27),#196,.F.);
#204=ADVANCED_FACE('',(#28,#19),#23,.T.);
#205=ADVANCED_FACE('',(#29),#15,.F.);
#206=ADVANCED_FACE('',(#30),#16,.T.);
#207=ADVANCED_FACE('',(#31),#197,.T.);
#208=ADVANCED_FACE('',(#32),#17,.T.);
#209=ADVANCED_FACE('',(#33),#198,.T.);
#210=ADVANCED_FACE('',(#34),#199,.F.);
#211=ADVANCED_FACE('',(#35,#20),#24,.T.);
#212=ADVANCED_FACE('',(#36),#200,.T.);
#213=ADVANCED_FACE('',(#37),#18,.T.);
#214=ADVANCED_FACE('',(#38),#201,.T.);
#215=ADVANCED_FACE('',(#39,#21),#25,.T.);
#216=ADVANCED_FACE('',(#40),#202,.F.);
#217=ADVANCED_FACE('',(#41,#22),#26,.T.);
#218=CLOSED_SHELL('',(#203,#204,#205,#206,#207,#208,#209,#210,#211,#212,
#213,#214,#215,#216,#217));
#219=DERIVED_UNIT_ELEMENT(#221,1.);
#220=DERIVED_UNIT_ELEMENT(#404,-3.);
#221=(
MASS_UNIT()
NAMED_UNIT(*)
SI_UNIT(.KILO.,.GRAM.)
);
#222=DERIVED_UNIT((#219,#220));
#223=MEASURE_REPRESENTATION_ITEM('density measure',
POSITIVE_RATIO_MEASURE(7850.),#222);
#224=PROPERTY_DEFINITION_REPRESENTATION(#229,#226);
#225=PROPERTY_DEFINITION_REPRESENTATION(#230,#227);
#226=REPRESENTATION('material name',(#228),#399);
#227=REPRESENTATION('density',(#223),#399);
#228=DESCRIPTIVE_REPRESENTATION_ITEM('Steel','Steel');
#229=PROPERTY_DEFINITION('material property','material name',#412);
#230=PROPERTY_DEFINITION('material property','density of part',#412);
#231=AXIS2_PLACEMENT_3D('',#338,#263,#264);
#232=AXIS2_PLACEMENT_3D('',#339,#265,#266);
#233=AXIS2_PLACEMENT_3D('',#342,#267,#268);
#234=AXIS2_PLACEMENT_3D('',#343,#269,#270);
#235=AXIS2_PLACEMENT_3D('',#346,#272,#273);
#236=AXIS2_PLACEMENT_3D('',#347,#274,#275);
#237=AXIS2_PLACEMENT_3D('',#349,#276,#277);
#238=AXIS2_PLACEMENT_3D('',#350,#278,#279);
#239=AXIS2_PLACEMENT_3D('',#353,#281,#282);
#240=AXIS2_PLACEMENT_3D('',#354,#283,#284);
#241=AXIS2_PLACEMENT_3D('',#356,#285,#286);
#242=AXIS2_PLACEMENT_3D('',#359,#288,#289);
#243=AXIS2_PLACEMENT_3D('',#360,#290,#291);
#244=AXIS2_PLACEMENT_3D('',#362,#292,#293);
#245=AXIS2_PLACEMENT_3D('',#364,#295,#296);
#246=AXIS2_PLACEMENT_3D('',#366,#297,#298);
#247=AXIS2_PLACEMENT_3D('',#368,#300,#301);
#248=AXIS2_PLACEMENT_3D('',#370,#303,#304);
#249=AXIS2_PLACEMENT_3D('',#373,#306,#307);
#250=AXIS2_PLACEMENT_3D('',#374,#308,#309);
#251=AXIS2_PLACEMENT_3D('',#376,#310,#311);
#252=AXIS2_PLACEMENT_3D('',#377,#312,#313);
#253=AXIS2_PLACEMENT_3D('',#379,#314,#315);
#254=AXIS2_PLACEMENT_3D('',#381,#317,#318);
#255=AXIS2_PLACEMENT_3D('',#383,#319,#320);
#256=AXIS2_PLACEMENT_3D('',#385,#322,#323);
#257=AXIS2_PLACEMENT_3D('',#387,#324,#325);
#258=AXIS2_PLACEMENT_3D('',#389,#327,#328);
#259=AXIS2_PLACEMENT_3D('',#391,#329,#330);
#260=AXIS2_PLACEMENT_3D('',#392,#331,#332);
#261=AXIS2_PLACEMENT_3D('',#395,#334,#335);
#262=AXIS2_PLACEMENT_3D('',#396,#336,#337);
#263=DIRECTION('axis',(0.,0.,1.));
#264=DIRECTION('refdir',(1.,0.,0.));
#265=DIRECTION('center_axis',(1.,0.,0.));
#266=DIRECTION('ref_axis',(0.,-1.,0.));
#267=DIRECTION('center_axis',(-1.,0.,0.));
#268=DIRECTION('ref_axis',(0.,-1.,0.));
#269=DIRECTION('center_axis',(-1.,0.,0.));
#270=DIRECTION('ref_axis',(0.,-1.,0.));
#271=DIRECTION('',(0.707106781186549,0.707106781186546,-8.65956056235491E-17));
#272=DIRECTION('center_axis',(1.,0.,0.));
#273=DIRECTION('ref_axis',(0.,-1.,0.));
#274=DIRECTION('center_axis',(1.,0.,0.));
#275=DIRECTION('ref_axis',(0.,0.,-1.));
#276=DIRECTION('center_axis',(1.,0.,0.));
#277=DIRECTION('ref_axis',(0.,0.,-1.));
#278=DIRECTION('center_axis',(1.,0.,0.));
#279=DIRECTION('ref_axis',(0.,1.,0.));
#280=DIRECTION('',(-1.,0.,0.));
#281=DIRECTION('center_axis',(1.,0.,0.));
#282=DIRECTION('ref_axis',(0.,0.,-1.));
#283=DIRECTION('center_axis',(1.,0.,0.));
#284=DIRECTION('ref_axis',(0.,1.,0.));
#285=DIRECTION('center_axis',(1.,0.,0.));
#286=DIRECTION('ref_axis',(0.,0.,-1.));
#287=DIRECTION('',(-1.,0.,0.));
#288=DIRECTION('center_axis',(1.,0.,0.));
#289=DIRECTION('ref_axis',(0.,0.,-1.));
#290=DIRECTION('center_axis',(1.,0.,0.));
#291=DIRECTION('ref_axis',(0.,1.,0.));
#292=DIRECTION('center_axis',(1.,0.,0.));
#293=DIRECTION('ref_axis',(0.,0.,-1.));
#294=DIRECTION('',(-0.707106781186546,0.707106781186549,8.65956056235495E-17));
#295=DIRECTION('center_axis',(1.,0.,0.));
#296=DIRECTION('ref_axis',(0.,1.,0.));
#297=DIRECTION('center_axis',(1.,0.,0.));
#298=DIRECTION('ref_axis',(0.,0.,-1.));
#299=DIRECTION('',(-1.,0.,0.));
#300=DIRECTION('center_axis',(-1.,0.,0.));
#301=DIRECTION('ref_axis',(0.,1.,0.));
#302=DIRECTION('',(-0.707106781186549,-0.707106781186546,-8.65956056235492E-17));
#303=DIRECTION('center_axis',(-1.,0.,0.));
#304=DIRECTION('ref_axis',(0.,1.,0.));
#305=DIRECTION('',(-0.754709580222772,-0.656059028990507,-8.03440589904945E-17));
#306=DIRECTION('center_axis',(1.,0.,0.));
#307=DIRECTION('ref_axis',(0.,0.,-1.));
#308=DIRECTION('center_axis',(-1.,0.,0.));
#309=DIRECTION('ref_axis',(0.,0.,1.));
#310=DIRECTION('center_axis',(1.,0.,0.));
#311=DIRECTION('ref_axis',(0.,0.,-1.));
#312=DIRECTION('center_axis',(1.,0.,0.));
#313=DIRECTION('ref_axis',(0.,1.,0.));
#314=DIRECTION('center_axis',(1.,0.,0.));
#315=DIRECTION('ref_axis',(0.,0.,-1.));
#316=DIRECTION('',(-0.707106781186547,0.707106781186548,8.65956056235494E-17));
#317=DIRECTION('center_axis',(1.,0.,0.));
#318=DIRECTION('ref_axis',(0.,1.,0.));
#319=DIRECTION('center_axis',(1.,0.,0.));
#320=DIRECTION('ref_axis',(0.,0.,-1.));
#321=DIRECTION('',(-1.,0.,0.));
#322=DIRECTION('center_axis',(-1.,0.,0.));
#323=DIRECTION('ref_axis',(0.,1.,0.));
#324=DIRECTION('center_axis',(1.,0.,0.));
#325=DIRECTION('ref_axis',(0.,0.,-1.));
#326=DIRECTION('',(-0.707106781186546,-0.707106781186549,-8.65956056235496E-17));
#327=DIRECTION('center_axis',(1.,0.,0.));
#328=DIRECTION('ref_axis',(0.,0.,-1.));
#329=DIRECTION('center_axis',(1.,0.,0.));
#330=DIRECTION('ref_axis',(0.,0.,-1.));
#331=DIRECTION('center_axis',(1.,0.,0.));
#332=DIRECTION('ref_axis',(0.,1.,0.));
#333=DIRECTION('',(-0.707106781186548,0.707106781186548,8.65956056235493E-17));
#334=DIRECTION('center_axis',(1.,0.,0.));
#335=DIRECTION('ref_axis',(0.,0.,-1.));
#336=DIRECTION('center_axis',(1.,0.,0.));
#337=DIRECTION('ref_axis',(0.,0.,-1.));
#338=CARTESIAN_POINT('',(0.,0.,0.));
#339=CARTESIAN_POINT('Origin',(0.455,0.,0.));
#340=CARTESIAN_POINT('',(0.45,0.102,-1.2491397351303E-17));
#341=CARTESIAN_POINT('',(0.45,-0.102,-1.2491397351303E-17));
#342=CARTESIAN_POINT('Origin',(0.45,0.,0.));
#343=CARTESIAN_POINT('Origin',(0.45,0.,0.));
#344=CARTESIAN_POINT('',(0.46,0.112,1.37160441504504E-17));
#345=CARTESIAN_POINT('',(0.455,0.107,-1.31037207508767E-17));
#346=CARTESIAN_POINT('Origin',(0.46,0.,0.));
#347=CARTESIAN_POINT('Origin',(0.46,0.102,0.));
#348=CARTESIAN_POINT('',(0.46,-0.186850393700787,-2.28825736565092E-17));
#349=CARTESIAN_POINT('Origin',(0.46,0.,0.));
#350=CARTESIAN_POINT('Origin',(0.28636805195383,0.,0.));
#351=CARTESIAN_POINT('',(0.112736103907659,-0.102,-1.2491397351303E-17));
#352=CARTESIAN_POINT('',(0.28636805195383,-0.102,-1.2491397351303E-17));
#353=CARTESIAN_POINT('Origin',(0.112736103907659,0.,0.));
#354=CARTESIAN_POINT('Origin',(0.1425,0.,0.));
#355=CARTESIAN_POINT('',(0.15,-0.191850393700787,-2.34948970560829E-17));
#356=CARTESIAN_POINT('Origin',(0.15,0.,0.));
#357=CARTESIAN_POINT('',(0.135,-0.191850393700787,-2.34948970560829E-17));
#358=CARTESIAN_POINT('',(0.1425,-0.191850393700787,-2.34948970560829E-17));
#359=CARTESIAN_POINT('Origin',(0.135,0.,0.));
#360=CARTESIAN_POINT('Origin',(0.1525,0.,0.));
#361=CARTESIAN_POINT('',(0.155,-0.196850393700787,-2.41072204556566E-17));
#362=CARTESIAN_POINT('Origin',(0.155,0.,0.));
#363=CARTESIAN_POINT('',(0.1525,-0.194350393700787,-2.38010587558697E-17));
#364=CARTESIAN_POINT('Origin',(0.3025,0.,0.));
#365=CARTESIAN_POINT('',(0.45,-0.196850393700787,-2.41072204556566E-17));
#366=CARTESIAN_POINT('Origin',(0.45,0.,0.));
#367=CARTESIAN_POINT('',(0.3025,-0.196850393700787,-2.41072204556566E-17));
#368=CARTESIAN_POINT('Origin',(0.455,0.,0.));
#369=CARTESIAN_POINT('',(0.455,-0.191850393700787,-2.34948970560829E-17));
#370=CARTESIAN_POINT('Origin',(0.0563680519538295,0.,0.));
#371=CARTESIAN_POINT('',(-2.18547839493141E-17,-0.2,-2.44929359829471E-17));
#372=CARTESIAN_POINT('',(0.0563680519538295,-0.151,-1.8492166667125E-17));
#373=CARTESIAN_POINT('Origin',(0.,0.,0.));
#374=CARTESIAN_POINT('Origin',(0.,0.313,0.));
#375=CARTESIAN_POINT('',(-5.46369598732853E-18,-0.313,-3.83314448133122E-17));
#376=CARTESIAN_POINT('Origin',(0.,0.,0.));
#377=CARTESIAN_POINT('Origin',(0.0184999999999999,0.,0.));
#378=CARTESIAN_POINT('',(0.0369999999999999,-0.35,-4.28626379701574E-17));
#379=CARTESIAN_POINT('Origin',(0.0369999999999999,0.,0.));
#380=CARTESIAN_POINT('',(0.0184999999999999,-0.3315,-4.05970413917347E-17));
#381=CARTESIAN_POINT('Origin',(0.0859999999999999,0.,0.));
#382=CARTESIAN_POINT('',(0.135,-0.35,-4.28626379701573E-17));
#383=CARTESIAN_POINT('Origin',(0.135,0.,0.));
#384=CARTESIAN_POINT('',(0.0859999999999999,-0.35,-4.28626379701573E-17));
#385=CARTESIAN_POINT('Origin',(0.1375,0.,0.));
#386=CARTESIAN_POINT('',(0.14,-0.345,-4.22503145705837E-17));
#387=CARTESIAN_POINT('Origin',(0.14,0.,0.));
#388=CARTESIAN_POINT('',(0.1375,-0.3475,-4.25564762703705E-17));
#389=CARTESIAN_POINT('Origin',(0.14,0.211850393700787,0.));
#390=CARTESIAN_POINT('',(0.14,-0.211850393700787,-2.59441906543776E-17));
#391=CARTESIAN_POINT('Origin',(0.14,0.,0.));
#392=CARTESIAN_POINT('Origin',(0.1375,0.,0.));
#393=CARTESIAN_POINT('',(0.135,-0.206850393700787,-2.53318672548039E-17));
#394=CARTESIAN_POINT('',(0.1375,-0.209350393700787,-2.56380289545907E-17));
#395=CARTESIAN_POINT('Origin',(0.135,0.,0.));
#396=CARTESIAN_POINT('Origin',(0.135,0.191850393700787,0.));
#397=UNCERTAINTY_MEASURE_WITH_UNIT(LENGTH_MEASURE(0.000393700787401575),
#402,'DISTANCE_ACCURACY_VALUE',
'Maximum model space distance between geometric entities at asserted c
onnectivities');
#398=UNCERTAINTY_MEASURE_WITH_UNIT(LENGTH_MEASURE(0.000393700787401575),
#402,'DISTANCE_ACCURACY_VALUE',
'Maximum model space distance between geometric entities at asserted c
onnectivities');
#399=(
GEOMETRIC_REPRESENTATION_CONTEXT(3)
GLOBAL_UNCERTAINTY_ASSIGNED_CONTEXT((#397))
GLOBAL_UNIT_ASSIGNED_CONTEXT((#402,#406,#407))
REPRESENTATION_CONTEXT('','3D')
);
#400=(
GEOMETRIC_REPRESENTATION_CONTEXT(3)
GLOBAL_UNCERTAINTY_ASSIGNED_CONTEXT((#398))
GLOBAL_UNIT_ASSIGNED_CONTEXT((#402,#406,#407))
REPRESENTATION_CONTEXT('','3D')
);
#401=DIMENSIONAL_EXPONENTS(1.,0.,0.,0.,0.,0.,0.);
#402=(
CONVERSION_BASED_UNIT('inch',#405)
LENGTH_UNIT()
NAMED_UNIT(#401)
);
#403=(
LENGTH_UNIT()
NAMED_UNIT(*)
SI_UNIT(.MILLI.,.METRE.)
);
#404=(
LENGTH_UNIT()
NAMED_UNIT(*)
SI_UNIT($,.METRE.)
);
#405=LENGTH_MEASURE_WITH_UNIT(LENGTH_MEASURE(25.4),#403);
#406=(
NAMED_UNIT(*)
PLANE_ANGLE_UNIT()
SI_UNIT($,.RADIAN.)
);
#407=(
NAMED_UNIT(*)
SI_UNIT($,.STERADIAN.)
SOLID_ANGLE_UNIT()
);
#408=SHAPE_DEFINITION_REPRESENTATION(#409,#410);
#409=PRODUCT_DEFINITION_SHAPE('',$,#412);
#410=SHAPE_REPRESENTATION('',(#231),#399);
#411=PRODUCT_DEFINITION_CONTEXT('part definition',#416,'design');
#412=PRODUCT_DEFINITION('SSA10-Cap Website','SSA10-Cap Website v1',#413,
#411);
#413=PRODUCT_DEFINITION_FORMATION('',$,#418);
#414=PRODUCT_RELATED_PRODUCT_CATEGORY('SSA10-Cap Website v1',
'SSA10-Cap Website v1',(#418));
#415=APPLICATION_PROTOCOL_DEFINITION('international standard',
'automotive_design',2009,#416);
#416=APPLICATION_CONTEXT(
'Core Data for Automotive Mechanical Design Process');
#417=PRODUCT_CONTEXT('part definition',#416,'mechanical');
#418=PRODUCT('SSA10-Cap Website','SSA10-Cap Website v1',$,(#417));
#419=PRESENTATION_STYLE_ASSIGNMENT((#421));
#420=PRESENTATION_STYLE_ASSIGNMENT((#422));
#421=SURFACE_STYLE_USAGE(.BOTH.,#423);
#422=SURFACE_STYLE_USAGE(.BOTH.,#424);
#423=SURFACE_SIDE_STYLE('',(#425));
#424=SURFACE_SIDE_STYLE('',(#426));
#425=SURFACE_STYLE_FILL_AREA(#427);
#426=SURFACE_STYLE_FILL_AREA(#428);
#427=FILL_AREA_STYLE('Steel - Satin',(#429));
#428=FILL_AREA_STYLE('Opaque(44,44,44)',(#430));
#429=FILL_AREA_STYLE_COLOUR('Steel - Satin',#431);
#430=FILL_AREA_STYLE_COLOUR('Opaque(44,44,44)',#432);
#431=COLOUR_RGB('Steel - Satin',0.627450980392157,0.627450980392157,0.627450980392157);
#432=COLOUR_RGB('Opaque(44,44,44)',0.172549019607843,0.172549019607843,
0.172549019607843);
ENDSEC;
END-ISO-10303-21;
