  0
SECTION
  2
HEADER
  9
$ACADVER
  1
AC1015
  9
$ACADMAINTVER
 70
     6
  9
$DWGCODEPAGE
  3
ANSI_1252
  9
$INSBASE
 10
0.0
 20
0.0
 30
0.0
  9
$EXTMIN
 10
0.0
 20
-1.25
 30
0.0
  9
$EXTMAX
 10
6.175
 20
1.25
 30
0.0
  9
$LIMMIN
 10
0.0
 20
0.0
  9
$LIMMAX
 10
12.0
 20
9.0
  9
$ORTHOMODE
 70
     0
  9
$REGENMODE
 70
     1
  9
$FILLMODE
 70
     1
  9
$QTEXTMODE
 70
     0
  9
$MIRRTEXT
 70
     1
  9
$LTSCALE
 40
1.0
  9
$ATTMODE
 70
     1
  9
$TEXTSIZE
 40
0.125
  9
$TRACEWID
 40
0.05
  9
$TEXTSTYLE
  7
Standard
  9
$CLAYER
  8
0
  9
$CELTYPE
  6
ByLayer
  9
$CECOLOR
 62
   256
  9
$CELTSCALE
 40
1.0
  9
$DISPSILH
 70
     0
  9
$DIMSCALE
 40
1.0
  9
$DIMASZ
 40
0.13
  9
$DIMEXO
 40
0.05
  9
$DIMDLI
 40
0.38
  9
$DIMRND
 40
0.0
  9
$DIMDLE
 40
0.0
  9
$DIMEXE
 40
0.125
  9
$DIMTP
 40
0.0
  9
$DIMTM
 40
0.0
  9
$DIMTXT
 40
0.125
  9
$DIMCEN
 40
0.09
  9
$DIMTSZ
 40
0.0
  9
$DIMTOL
 70
     0
  9
$DIMLIM
 70
     0
  9
$DIMTIH
 70
     1
  9
$DIMTOH
 70
     1
  9
$DIMSE1
 70
     0
  9
$DIMSE2
 70
     0
  9
$DIMTAD
 70
     0
  9
$DIMZIN
 70
     0
  9
$DIMBLK
  1

  9
$DIMASO
 70
     1
  9
$DIMSHO
 70
     1
  9
$DIMPOST
  1

  9
$DIMAPOST
  1

  9
$DIMALT
 70
     0
  9
$DIMALTD
 70
     2
  9
$DIMALTF
 40
25.4
  9
$DIMLFAC
 40
1.0
  9
$DIMTOFL
 70
     0
  9
$DIMTVP
 40
0.0
  9
$DIMTIX
 70
     0
  9
$DIMSOXD
 70
     0
  9
$DIMSAH
 70
     0
  9
$DIMBLK1
  1

  9
$DIMBLK2
  1

  9
$DIMSTYLE
  2
Standard
  9
$DIMCLRD
 70
     0
  9
$DIMCLRE
 70
     0
  9
$DIMCLRT
 70
     0
  9
$DIMTFAC
 40
1.0
  9
$DIMGAP
 40
0.06
  9
$DIMJUST
 70
     0
  9
$DIMSD1
 70
     0
  9
$DIMSD2
 70
     0
  9
$DIMTOLJ
 70
     1
  9
$DIMTZIN
 70
     0
  9
$DIMALTZ
 70
     0
  9
$DIMALTTZ
 70
     0
  9
$DIMUPT
 70
     0
  9
$DIMDEC
 70
     2
  9
$DIMTDEC
 70
     2
  9
$DIMALTU
 70
     2
  9
$DIMALTTD
 70
     2
  9
$DIMTXSTY
  7
Standard
  9
$DIMAUNIT
 70
     0
  9
$DIMADEC
 70
     2
  9
$DIMALTRND
 40
0.0
  9
$DIMAZIN
 70
     0
  9
$DIMDSEP
 70
    46
  9
$DIMATFIT
 70
     3
  9
$DIMFRAC
 70
     0
  9
$DIMLDRBLK
  1

  9
$DIMLUNIT
 70
     2
  9
$DIMLWD
 70
    -2
  9
$DIMLWE
 70
    -2
  9
$DIMTMOVE
 70
     0
  9
$LUNITS
 70
     2
  9
$LUPREC
 70
     2
  9
$SKETCHINC
 40
0.1
  9
$FILLETRAD
 40
0.5
  9
$AUNITS
 70
     0
  9
$AUPREC
 70
     2
  9
$MENU
  1
.
  9
$ELEVATION
 40
0.0
  9
$PELEVATION
 40
0.0
  9
$THICKNESS
 40
0.0
  9
$LIMCHECK
 70
     0
  9
$CHAMFERA
 40
0.0
  9
$CHAMFERB
 40
0.0
  9
$CHAMFERC
 40
0.0
  9
$CHAMFERD
 40
0.0
  9
$SKPOLY
 70
     0
  9
$TDCREATE
 40
2458127.510931076
  9
$TDUCREATE
 40
2458127.760931076
  9
$TDUPDATE
 40
2458127.510957326
  9
$TDUUPDATE
 40
2458127.760957326
  9
$TDINDWG
 40
0.0000000116
  9
$TDUSRTIMER
 40
0.0000000116
  9
$USRTIMER
 70
     1
  9
$ANGBASE
 50
0.0
  9
$ANGDIR
 70
     0
  9
$PDMODE
 70
     0
  9
$PDSIZE
 40
-1.0
  9
$PLINEWID
 40
0.0
  9
$SPLFRAME
 70
     0
  9
$SPLINETYPE
 70
     6
  9
$SPLINESEGS
 70
     8
  9
$HANDSEED
  5
142
  9
$SURFTAB1
 70
     6
  9
$SURFTAB2
 70
     6
  9
$SURFTYPE
 70
     6
  9
$SURFU
 70
     6
  9
$SURFV
 70
     6
  9
$UCSBASE
  2

  9
$UCSNAME
  2

  9
$UCSORG
 10
0.0
 20
0.0
 30
0.0
  9
$UCSXDIR
 10
1.0
 20
0.0
 30
0.0
  9
$UCSYDIR
 10
0.0
 20
1.0
 30
0.0
  9
$UCSORTHOREF
  2

  9
$UCSORTHOVIEW
 70
     0
  9
$UCSORGTOP
 10
0.0
 20
0.0
 30
0.0
  9
$UCSORGBOTTOM
 10
0.0
 20
0.0
 30
0.0
  9
$UCSORGLEFT
 10
0.0
 20
0.0
 30
0.0
  9
$UCSORGRIGHT
 10
0.0
 20
0.0
 30
0.0
  9
$UCSORGFRONT
 10
0.0
 20
0.0
 30
0.0
  9
$UCSORGBACK
 10
0.0
 20
0.0
 30
0.0
  9
$PUCSBASE
  2

  9
$PUCSNAME
  2

  9
$PUCSORG
 10
0.0
 20
0.0
 30
0.0
  9
$PUCSXDIR
 10
1.0
 20
0.0
 30
0.0
  9
$PUCSYDIR
 10
0.0
 20
1.0
 30
0.0
  9
$PUCSORTHOREF
  2

  9
$PUCSORTHOVIEW
 70
     0
  9
$PUCSORGTOP
 10
0.0
 20
0.0
 30
0.0
  9
$PUCSORGBOTTOM
 10
0.0
 20
0.0
 30
0.0
  9
$PUCSORGLEFT
 10
0.0
 20
0.0
 30
0.0
  9
$PUCSORGRIGHT
 10
0.0
 20
0.0
 30
0.0
  9
$PUCSORGFRONT
 10
0.0
 20
0.0
 30
0.0
  9
$PUCSORGBACK
 10
0.0
 20
0.0
 30
0.0
  9
$USERI1
 70
     0
  9
$USERI2
 70
     0
  9
$USERI3
 70
     0
  9
$USERI4
 70
     0
  9
$USERI5
 70
     0
  9
$USERR1
 40
0.0
  9
$USERR2
 40
0.0
  9
$USERR3
 40
0.0
  9
$USERR4
 40
0.0
  9
$USERR5
 40
0.0
  9
$WORLDVIEW
 70
     1
  9
$SHADEDGE
 70
     3
  9
$SHADEDIF
 70
    70
  9
$TILEMODE
 70
     1
  9
$MAXACTVP
 70
    64
  9
$PINSBASE
 10
0.0
 20
0.0
 30
0.0
  9
$PLIMCHECK
 70
     0
  9
$PEXTMIN
 10
1.0000000000E+20
 20
1.0000000000E+20
 30
1.0000000000E+20
  9
$PEXTMAX
 10
-1.0000000000E+20
 20
-1.0000000000E+20
 30
-1.0000000000E+20
  9
$PLIMMIN
 10
0.0
 20
0.0
  9
$PLIMMAX
 10
12.0
 20
9.0
  9
$UNITMODE
 70
     0
  9
$VISRETAIN
 70
     1
  9
$PLINEGEN
 70
     0
  9
$PSLTSCALE
 70
     1
  9
$TREEDEPTH
 70
  3020
  9
$CMLSTYLE
  2
Standard
  9
$CMLJUST
 70
     0
  9
$CMLSCALE
 40
1.0
  9
$PROXYGRAPHICS
 70
     1
  9
$MEASUREMENT
 70
     0
  9
$CELWEIGHT
370
    -1
  9
$ENDCAPS
280
     0
  9
$JOINSTYLE
280
     0
  9
$LWDISPLAY
290
     1
  9
$INSUNITS
 70
     1
  9
$HYPERLINKBASE
  1

  9
$STYLESHEET
  1

  9
$XEDIT
290
     1
  9
$CEPSNTYPE
380
     0
  9
$PSTYLEMODE
290
     1
  9
$FINGERPRINTGUID
  2
{2E211FB4-71C5-44A9-BD67-03E94E65BEBB}
  9
$VERSIONGUID
  2
{FAEB1C32-E019-11D5-929B-00C0DF256EC4}
  9
$EXTNAMES
290
     1
  9
$PSVPSCALE
 40
0.0
  9
$OLESTARTUP
290
     0
  0
ENDSEC
  0
SECTION
  2
CLASSES
  0
CLASS
  1
ACDBDICTIONARYWDFLT
  2
AcDbDictionaryWithDefault
  3
ObjectDBX Classes
 90
        0
280
     0
281
     0
  0
CLASS
  1
VISUALSTYLE
  2
AcDbVisualStyle
  3
ObjectDBX Classes
 90
     4095
280
     0
281
     0
  0
CLASS
  1
MATERIAL
  2
AcDbMaterial
  3
ObjectDBX Classes
 90
     1153
280
     0
281
     0
  0
CLASS
  1
SCALE
  2
AcDbScale
  3
ObjectDBX Classes
 90
     1153
280
     0
281
     0
  0
CLASS
  1
TABLESTYLE
  2
AcDbTableStyle
  3
ObjectDBX Classes
 90
     4095
280
     0
281
     0
  0
CLASS
  1
MLEADERSTYLE
  2
AcDbMLeaderStyle
  3
ACDB_MLEADERSTYLE_CLASS
 90
     4095
280
     0
281
     0
  0
CLASS
  1
SUN
  2
AcDbSun
  3
SCENEOE
 90
     1153
280
     0
281
     0
  0
CLASS
  1
ACDBPLACEHOLDER
  2
AcDbPlaceHolder
  3
ObjectDBX Classes
 90
        0
280
     0
281
     0
  0
CLASS
  1
LAYOUT
  2
AcDbLayout
  3
ObjectDBX Classes
 90
        0
280
     0
281
     0
  0
ENDSEC
  0
SECTION
  2
TABLES
  0
TABLE
  2
VPORT
  5
8
330
0
100
AcDbSymbolTable
 70
     1
  0
VPORT
  5
29
330
8
100
AcDbSymbolTableRecord
100
AcDbViewportTableRecord
  2
*Active
 70
     0
 10
0.0
 20
0.0
 11
1.0
 21
1.0
 12
3.0875
 22
0.0
 13
0.0
 23
0.0
 14
0.5
 24
0.5
 15
0.5
 25
0.5
 16
0.0
 26
0.0
 36
1.0
 17
0.0
 27
0.0
 37
0.0
 40
2.55
 41
2.47
 42
50.0
 43
0.0
 44
0.0
 50
0.0
 51
0.0
 71
     0
 72
   100
 73
     1
 74
     3
 75
     0
 76
     0
 77
     0
 78
     0
281
     0
 65
     1
110
0.0
120
0.0
130
0.0
111
1.0
121
0.0
131
0.0
112
0.0
122
1.0
132
0.0
 79
     0
146
0.0
  0
ENDTAB
  0
TABLE
  2
LTYPE
  5
5
330
0
100
AcDbSymbolTable
 70
     6
  0
LTYPE
  5
14
330
5
100
AcDbSymbolTableRecord
100
AcDbLinetypeTableRecord
  2
ByBlock
 70
     0
  3

 72
    65
 73
     0
 40
0.0
  0
LTYPE
  5
15
330
5
100
AcDbSymbolTableRecord
100
AcDbLinetypeTableRecord
  2
ByLayer
 70
     0
  3

 72
    65
 73
     0
 40
0.0
  0
LTYPE
  5
16
330
5
100
AcDbSymbolTableRecord
100
AcDbLinetypeTableRecord
  2
Continuous
 70
     0
  3
Solid line
 72
    65
 73
     0
 40
0.0
  0
LTYPE
  5
6E
330
5
100
AcDbSymbolTableRecord
100
AcDbLinetypeTableRecord
  2
HIDDEN
 70
     0
  3
Hidden __ __ __ __ __ __ __ __ __ __ __ __ __ __
 72
    65
 73
     2
 40
0.075
 49
0.05
 74
     0
 49
-0.025
 74
     0
  0
LTYPE
  5
6F
330
5
100
AcDbSymbolTableRecord
100
AcDbLinetypeTableRecord
  2
PHANTOM
 70
     0
  3
Phantom ______  __  __  ______  __  __  ______
 72
    65
 73
     6
 40
0.5
 49
0.25
 74
     0
 49
-0.05
 74
     0
 49
0.05
 74
     0
 49
-0.05
 74
     0
 49
0.05
 74
     0
 49
-0.05
 74
     0
  0
LTYPE
  5
70
330
5
100
AcDbSymbolTableRecord
100
AcDbLinetypeTableRecord
  2
CENTER
 70
     0
  3
Center ____ _ ____ _ ____ _ ____ _ ____ _ ____
 72
    65
 73
     4
 40
0.4
 49
0.25
 74
     0
 49
-0.05
 74
     0
 49
0.05
 74
     0
 49
-0.05
 74
     0
  0
LTYPE
  5
71
330
5
100
AcDbSymbolTableRecord
100
AcDbLinetypeTableRecord
  2
CENTERX2
 70
     0
  3
Center (2x) ________  __  ________  __  _____
 72
    65
 73
     4
 40
0.8
 49
0.5
 74
     0
 49
-0.1
 74
     0
 49
0.1
 74
     0
 49
-0.1
 74
     0
  0
LTYPE
  5
72
330
5
100
AcDbSymbolTableRecord
100
AcDbLinetypeTableRecord
  2
DOT2
 70
     0
  3
Dot (.5x) ........................................
 72
    65
 73
     2
 40
0.025
 49
0.0
 74
     0
 49
-0.025
 74
     0
  0
ENDTAB
  0
TABLE
  2
LAYER
  5
2
330
0
100
AcDbSymbolTable
 70
     1
  0
LAYER
  5
10
330
2
100
AcDbSymbolTableRecord
100
AcDbLayerTableRecord
  2
0
 70
     0
 62
     7
  6
Continuous
370
    -3
390
F
  0
ENDTAB
  0
TABLE
  2
STYLE
  5
3
330
0
100
AcDbSymbolTable
 70
     1
  0
STYLE
  5
11
330
3
100
AcDbSymbolTableRecord
100
AcDbTextStyleTableRecord
  2
Standard
 70
     0
 40
0.0
 41
1.0
 50
0.0
 71
     0
 42
0.125
  3
txt
  4

  0
ENDTAB
  0
TABLE
  2
VIEW
  5
6
330
0
100
AcDbSymbolTable
 70
     0
  0
ENDTAB
  0
TABLE
  2
UCS
  5
7
330
0
100
AcDbSymbolTable
 70
     0
  0
ENDTAB
  0
TABLE
  2
APPID
  5
9
330
0
100
AcDbSymbolTable
 70
     1
  0
APPID
  5
12
330
9
100
AcDbSymbolTableRecord
100
AcDbRegAppTableRecord
  2
ACAD
 70
     0
  0
ENDTAB
  0
TABLE
  2
DIMSTYLE
  5
A
330
0
100
AcDbSymbolTable
 70
     1
100
AcDbDimStyleTable
  0
DIMSTYLE
105
27
330
A
100
AcDbSymbolTableRecord
100
AcDbDimStyleTableRecord
  2
Standard
 70
     0
178
     0
340
11
  0
ENDTAB
  0
TABLE
  2
BLOCK_RECORD
  5
1
330
0
100
AcDbSymbolTable
 70
     1
  0
BLOCK_RECORD
  5
1F
330
1
100
AcDbSymbolTableRecord
100
AcDbBlockTableRecord
  2
*Model_Space
340
22
  0
BLOCK_RECORD
  5
1B
330
1
100
AcDbSymbolTableRecord
100
AcDbBlockTableRecord
  2
*Paper_Space
340
1E
  0
BLOCK_RECORD
  5
23
330
1
100
AcDbSymbolTableRecord
100
AcDbBlockTableRecord
  2
*Paper_Space0
340
26
  0
ENDTAB
  0
ENDSEC
  0
SECTION
  2
BLOCKS
  0
BLOCK
  5
20
330
1F
100
AcDbEntity
  8
0
100
AcDbBlockBegin
  2
*Model_Space
 70
     0
 10
0.0
 20
0.0
 30
0.0
  3
*Model_Space
  1

  0
ENDBLK
  5
21
330
1F
100
AcDbEntity
  8
0
100
AcDbBlockEnd
  0
BLOCK
  5
1C
330
1B
100
AcDbEntity
 67
     1
  8
0
100
AcDbBlockBegin
  2
*Paper_Space
 70
     0
 10
0.0
 20
0.0
 30
0.0
  3
*Paper_Space
  1

  0
ENDBLK
  5
1D
330
1B
100
AcDbEntity
 67
     1
  8
0
100
AcDbBlockEnd
  0
BLOCK
  5
24
330
23
100
AcDbEntity
  8
0
100
AcDbBlockBegin
  2
*Paper_Space0
 70
     0
 10
0.0
 20
0.0
 30
0.0
  3
*Paper_Space0
  1

  0
ENDBLK
  5
25
330
23
100
AcDbEntity
  8
0
100
AcDbBlockEnd
  0
ENDSEC
  0
SECTION
  2
ENTITIES
  0
SPLINE
  5
91
330
1F
100
AcDbEntity
  8
0
  6
Continuous
 62
     7
370
    25
100
AcDbSpline
210
0.0
220
0.0
230
1.0
 70
     8
 71
     3
 72
    15
 73
    11
 74
     0
 42
0.000000001
 43
0.00000001
 40
0.359255588619473
 40
0.359255588619473
 40
0.359255588619473
 40
0.359255588619473
 40
0.3770296936762079
 40
0.3859167462045759
 40
0.4036908512613109
 40
0.4214649563180459
 40
0.4303520088464129
 40
0.4481261139031479
 40
0.4481261139031479
 40
0.478939776876096
 40
0.478939776876096
 40
0.478939776876096
 40
0.478939776876096
 10
3.40875
 20
-0.3375705241634998
 30
0.0
 10
3.410763832380448
 20
-0.3375705241634998
 30
0.0
 10
3.414188482967038
 20
-0.3375851007935746
 30
0.0
 10
3.419289133392979
 20
-0.3376377244436395
 30
0.0
 10
3.424295714744791
 20
-0.3377185003951039
 30
0.0
 10
3.428753458368258
 20
-0.3378192251962149
 30
0.0
 10
3.432655600060199
 20
-0.3379209108148547
 30
0.0
 10
3.434781650500447
 20
-0.3379823771963767
 30
0.0
 10
3.437710916933168
 20
-0.3380687574488889
 30
0.0
 10
3.43918723933607
 20
-0.3381126997423957
 30
0.0
 10
3.439712838806225
 20
-0.3381223610075039
 30
0.0
  0
SPLINE
  5
92
330
1F
100
AcDbEntity
  8
0
  6
Continuous
 62
     7
370
    25
100
AcDbSpline
210
0.0
220
0.0
230
1.0
 70
     8
 71
     3
 72
     8
 73
     4
 74
     0
 42
0.000000001
 43
0.00000001
 40
-3.39167844901024
 40
-3.39167844901024
 40
-3.39167844901024
 40
-3.39167844901024
 40
-3.38050361104296
 40
-3.38050361104296
 40
-3.38050361104296
 40
-3.38050361104296
 10
3.439712838806228
 20
-0.3381223610075039
 30
0.0
 10
3.439905094908788
 20
-0.3381258949478539
 30
0.0
 10
3.44
 20
-0.338125
 30
0.0
 10
3.44
 20
-0.338125
 30
0.0
  0
SPLINE
  5
9B
330
1F
100
AcDbEntity
  8
0
  6
Continuous
 62
     7
370
    25
100
AcDbSpline
210
0.0
220
0.0
230
1.0
 70
     8
 71
     3
 72
     8
 73
     4
 74
     0
 42
0.000000001
 43
0.00000001
 40
2.90425361104296
 40
2.90425361104296
 40
2.90425361104296
 40
2.90425361104296
 40
2.91542844901024
 40
2.91542844901024
 40
2.91542844901024
 40
2.91542844901024
 10
2.815
 20
-0.338125
 30
0.0
 10
2.815
 20
-0.338125
 30
0.0
 10
2.815094905091209
 20
-0.3381258949478539
 30
0.0
 10
2.815287161193772
 20
-0.3381223610075039
 30
0.0
  0
SPLINE
  5
9C
330
1F
100
AcDbEntity
  8
0
  6
Continuous
 62
     7
370
    25
100
AcDbSpline
210
0.0
220
0.0
230
1.0
 70
     8
 71
     3
 72
    17
 73
    13
 74
     0
 42
0.000000001
 43
0.00000001
 40
0.478939551300587
 40
0.478939551300587
 40
0.478939551300587
 40
0.478939551300587
 40
0.509753214273537
 40
0.509753214273537
 40
0.5278927752507381
 40
0.5339392955764719
 40
0.5399858159022048
 40
0.5399858159022048
 40
0.5575771929987059
 40
0.5751685700952069
 40
0.581032362460708
 40
0.5986237395572089
 40
0.5986237395572089
 40
0.5986237395572089
 40
0.5986237395572089
 10
2.815287161193737
 20
-0.338122361007539
 30
0.0
 10
2.815812760663895
 20
-0.338112699742432
 30
0.0
 10
2.817285297357288
 20
-0.3380687392256311
 30
0.0
 10
2.820242344232283
 20
-0.337981540402049
 30
0.0
 10
2.822121820593482
 20
-0.3379269419303338
 30
0.0
 10
2.824838497325327
 20
-0.3378557523100705
 30
0.0
 10
2.82594054122775
 20
-0.3378285894771014
 30
0.0
 10
2.828067541558162
 20
-0.3377778018338765
 30
0.0
 10
2.832020501289024
 20
-0.3376941669858379
 30
0.0
 10
2.836435465132333
 20
-0.3376293168350372
 30
0.0
 10
2.841286814391163
 20
-0.3375825881811592
 30
0.0
 10
2.844256870967595
 20
-0.3375705241635349
 30
0.0
 10
2.846249999999999
 20
-0.3375705241635349
 30
0.0
  0
SPLINE
  5
A4
330
1F
100
AcDbEntity
  8
0
  6
Continuous
 62
     7
370
    25
100
AcDbSpline
210
0.0
220
0.0
230
1.0
 70
     8
 71
     3
 72
     8
 73
     4
 74
     0
 42
0.000000001
 43
0.00000001
 40
2.74550361104296
 40
2.74550361104296
 40
2.74550361104296
 40
2.74550361104296
 40
2.75667844901024
 40
2.75667844901024
 40
2.75667844901024
 40
2.75667844901024
 10
3.44
 20
0.338125
 30
0.0
 10
3.44
 20
0.338125
 30
0.0
 10
3.439905094908788
 20
0.3381258949478539
 30
0.0
 10
3.439712838806228
 20
0.3381223610075039
 30
0.0
  0
SPLINE
  5
A5
330
1F
100
AcDbEntity
  8
0
  6
Continuous
 62
     7
370
    25
100
AcDbSpline
210
0.0
220
0.0
230
1.0
 70
     8
 71
     3
 72
    17
 73
    13
 74
     0
 42
0.000000001
 43
0.00000001
 40
0.478939776876087
 40
0.478939776876087
 40
0.478939776876087
 40
0.478939776876087
 40
0.5097534398490349
 40
0.5097534398490349
 40
0.527893000826237
 40
0.533939521151972
 40
0.539986041477706
 40
0.539986041477706
 40
0.5575774185742088
 40
0.575168795670711
 40
0.5810325880362119
 40
0.598623965132715
 40
0.598623965132715
 40
0.598623965132715
 40
0.598623965132715
 10
3.439712838806261
 20
0.3381223610075385
 30
0.0
 10
3.439187239336104
 20
0.3381126997424315
 30
0.0
 10
3.437714709475959
 20
0.3380687392705884
 30
0.0
 10
3.434757667038735
 20
0.3379815405310332
 30
0.0
 10
3.432878193245414
 20
0.3379269421010921
 30
0.0
 10
3.430161515809452
 20
0.337855752478434
 30
0.0
 10
3.429059471658508
 20
0.3378285896489501
 30
0.0
 10
3.426932468551518
 20
0.3377778019950608
 30
0.0
 10
3.422979504558214
 20
0.3376941671581569
 30
0.0
 10
3.418564539567929
 20
0.3376293169567387
 30
0.0
 10
3.413713190126056
 20
0.3375825883264615
 30
0.0
 10
3.410743129032404
 20
0.3375705241635346
 30
0.0
 10
3.40875
 20
0.3375705241635346
 30
0.0
  0
SPLINE
  5
AC
330
1F
100
AcDbEntity
  8
0
  6
Continuous
 62
     7
370
    25
100
AcDbSpline
210
0.0
220
0.0
230
1.0
 70
     8
 71
     3
 72
    17
 73
    13
 74
     0
 42
0.000000001
 43
0.00000001
 40
0.359255363043966
 40
0.359255363043966
 40
0.359255363043966
 40
0.359255363043966
 40
0.376846740140467
 40
0.382710532505967
 40
0.400301909602468
 40
0.417893286698969
 40
0.417893286698969
 40
0.423939807024702
 40
0.429986327350436
 40
0.448125888327637
 40
0.448125888327637
 40
0.478939551300587
 40
0.478939551300587
 40
0.478939551300587
 40
0.478939551300587
 10
2.84625
 20
0.3375705241635014
 30
0.0
 10
2.844256870967599
 20
0.3375705241635014
 30
0.0
 10
2.841286814391169
 20
0.3375825881811254
 30
0.0
 10
2.836435465132343
 20
0.3376293168350034
 30
0.0
 10
2.83202050128904
 20
0.3376941669858041
 30
0.0
 10
2.82806754155818
 20
0.3377778018338412
 30
0.0
 10
2.82594054122777
 20
0.3378285894770671
 30
0.0
 10
2.824838497325349
 20
0.3378557523100353
 30
0.0
 10
2.822121820593506
 20
0.3379269419302994
 30
0.0
 10
2.82024234423231
 20
0.3379815404020144
 30
0.0
 10
2.817285297357329
 20
0.3380687392255963
 30
0.0
 10
2.815812760663928
 20
0.3381126997423971
 30
0.0
 10
2.81528716119377
 20
0.3381223610075041
 30
0.0
  0
SPLINE
  5
AD
330
1F
100
AcDbEntity
  8
0
  6
Continuous
 62
     7
370
    25
100
AcDbSpline
210
0.0
220
0.0
230
1.0
 70
     8
 71
     3
 72
     8
 73
     4
 74
     0
 42
0.000000001
 43
0.00000001
 40
-2.28042844901024
 40
-2.28042844901024
 40
-2.28042844901024
 40
-2.28042844901024
 40
-2.26925361104296
 40
-2.26925361104296
 40
-2.26925361104296
 40
-2.26925361104296
 10
2.815287161193772
 20
0.3381223610075039
 30
0.0
 10
2.815094905091209
 20
0.3381258949478539
 30
0.0
 10
2.815
 20
0.338125
 30
0.0
 10
2.815
 20
0.338125
 30
0.0
  0
SPLINE
  5
B7
330
1F
100
AcDbEntity
  8
0
  6
Continuous
 62
     7
370
    25
100
AcDbSpline
210
0.0
220
0.0
230
1.0
 70
    24
 71
     3
 72
    10
 73
     6
 74
     0
 42
0.000000001
 43
0.00000001
 40
0.0219624586793679
 40
0.0219624586793679
 40
0.0219624586793679
 40
0.0219624586793679
 40
0.438074616547523
 40
0.438074616547523
 40
0.46301870988558
 40
0.46301870988558
 40
0.46301870988558
 40
0.46301870988558
 10
3.261676750564658
 20
-0.3225000000000001
 30
0.0
 10
3.23354970576979
 20
-0.3225000000000001
 30
0.0
 10
3.207242875630441
 20
-0.3225000000000001
 30
0.0
 10
3.180976494609492
 20
-0.3225000000000001
 30
0.0
 10
3.179490711330201
 20
-0.3225000000000001
 30
0.0
 10
3.17800492805091
 20
-0.3225000000000001
 30
0.0
  0
SPLINE
  5
B8
330
1F
100
AcDbEntity
  8
0
  6
Continuous
 62
     7
370
    25
100
AcDbSpline
210
0.0
220
0.0
230
1.0
 70
     8
 71
     3
 72
    10
 73
     6
 74
     0
 42
0.000000001
 43
0.00000001
 40
-0.449532144958772
 40
-0.449532144958772
 40
-0.449532144958772
 40
-0.449532144958772
 40
-0.438074616547523
 40
-0.438074616547523
 40
-0.0088492430257089
 40
-0.0088492430257089
 40
-0.0088492430257089
 40
-0.0088492430257089
 10
3.168784210975449
 20
-0.3379489747470382
 30
0.0
 10
3.16946436886902
 20
-0.3379493797369091
 30
0.0
 10
3.170144642302071
 20
-0.3379497695321969
 30
0.0
 10
3.196314973087358
 20
-0.3379641892560811
 30
0.0
 10
3.223432625777229
 20
-0.3379765975118351
 30
0.0
 10
3.252499999989882
 20
-0.337987727821939
 30
0.0
  0
SPLINE
  5
B9
330
1F
100
AcDbEntity
  8
0
  6
Continuous
 62
     7
370
    25
100
AcDbSpline
210
0.0
220
0.0
230
1.0
 70
    24
 71
     3
 72
    10
 73
     6
 74
     0
 42
0.000000001
 43
0.00000001
 40
-0.0249374069506298
 40
-0.0249374069506298
 40
-0.0249374069506298
 40
-0.0249374069506298
 40
0.0
 40
0.0
 40
0.4160006169446793
 40
0.4160006169446793
 40
0.4160006169446793
 40
0.4160006169446793
 10
3.076995071949091
 20
-0.3225000000000001
 30
0.0
 10
3.075509288669799
 20
-0.3225000000000001
 30
0.0
 10
3.074023505390508
 20
-0.3225000000000001
 30
0.0
 10
3.047757124369823
 20
-0.3225000000000001
 30
0.0
 10
3.021450294230828
 20
-0.3225000000000001
 30
0.0
 10
2.993323249435337
 20
-0.3225000000000001
 30
0.0
  0
SPLINE
  5
BC
330
1F
100
AcDbEntity
  8
0
  6
Continuous
 62
     7
370
    25
100
AcDbSpline
210
0.0
220
0.0
230
1.0
 70
     8
 71
     3
 72
    10
 73
     6
 74
     0
 42
0.000000001
 43
0.00000001
 40
-0.429110317535685
 40
-0.429110317535685
 40
-0.429110317535685
 40
-0.429110317535685
 40
0.0
 40
0.0
 40
0.0114544571641684
 40
0.0114544571641684
 40
0.0114544571641684
 40
0.0114544571641684
 10
3.00250000001011
 20
-0.337987727821939
 30
0.0
 10
3.031567374223441
 20
-0.3379765975118351
 30
0.0
 10
3.058685026912909
 20
-0.3379641892560811
 30
0.0
 10
3.08485535769793
 20
-0.3379497695321969
 30
0.0
 10
3.08553563113098
 20
-0.3379493797369091
 30
0.0
 10
3.086215789024551
 20
-0.3379489747470382
 30
0.0
  0
SPLINE
  5
BD
330
1F
100
AcDbEntity
  8
0
  6
Continuous
 62
     7
370
    25
100
AcDbSpline
210
0.0
220
0.0
230
1.0
 70
     8
 71
     3
 72
    10
 73
     6
 74
     0
 42
0.000000001
 43
0.00000001
 40
-0.449532144958875
 40
-0.449532144958875
 40
-0.449532144958875
 40
-0.449532144958875
 40
-0.4380746165475169
 40
-0.4380746165475169
 40
-0.0088492430254776
 40
-0.0088492430254776
 40
-0.0088492430254776
 40
-0.0088492430254776
 10
3.086215789024551
 20
0.3379489747470382
 30
0.0
 10
3.08553563113098
 20
0.3379493797369091
 30
0.0
 10
3.08485535769793
 20
0.3379497695321969
 30
0.0
 10
3.058685026912858
 20
0.3379641892560811
 30
0.0
 10
3.031567374223512
 20
0.3379765975118351
 30
0.0
 10
3.00250000001011
 20
0.337987727821939
 30
0.0
  0
SPLINE
  5
C0
330
1F
100
AcDbEntity
  8
0
  6
Continuous
 62
     7
370
    25
100
AcDbSpline
210
0.0
220
0.0
230
1.0
 70
    24
 71
     3
 72
    10
 73
     6
 74
     0
 42
0.000000001
 43
0.00000001
 40
0.0219624586788338
 40
0.0219624586788338
 40
0.0219624586788338
 40
0.0219624586788338
 40
0.4380746165475169
 40
0.4380746165475169
 40
0.463018709885807
 40
0.463018709885807
 40
0.463018709885807
 40
0.463018709885807
 10
2.993323249435337
 20
0.3225000000000001
 30
0.0
 10
3.021450294230877
 20
0.3225000000000001
 30
0.0
 10
3.047757124369764
 20
0.3225000000000001
 30
0.0
 10
3.074023505390508
 20
0.3225000000000001
 30
0.0
 10
3.075509288669799
 20
0.3225000000000001
 30
0.0
 10
3.076995071949091
 20
0.3225000000000001
 30
0.0
  0
SPLINE
  5
C3
330
1F
100
AcDbEntity
  8
0
  6
Continuous
 62
     7
370
    25
100
AcDbSpline
210
0.0
220
0.0
230
1.0
 70
     8
 71
     3
 72
    10
 73
     6
 74
     0
 42
0.000000001
 43
0.00000001
 40
-0.429110317535496
 40
-0.429110317535496
 40
-0.429110317535496
 40
-0.429110317535496
 40
0.0
 40
0.0
 40
0.0114544571640345
 40
0.0114544571640345
 40
0.0114544571640345
 40
0.0114544571640345
 10
3.25249999998989
 20
0.337987727821939
 30
0.0
 10
3.223432625777229
 20
0.3379765975118351
 30
0.0
 10
3.19631497308737
 20
0.3379641892560811
 30
0.0
 10
3.170144642302071
 20
0.3379497695321969
 30
0.0
 10
3.16946436886902
 20
0.3379493797369091
 30
0.0
 10
3.168784210975449
 20
0.3379489747470382
 30
0.0
  0
SPLINE
  5
C4
330
1F
100
AcDbEntity
  8
0
  6
Continuous
 62
     7
370
    25
100
AcDbSpline
210
0.0
220
0.0
230
1.0
 70
    24
 71
     3
 72
    10
 73
     6
 74
     0
 42
0.000000001
 43
0.00000001
 40
-0.024937406950338
 40
-0.024937406950338
 40
-0.024937406950338
 40
-0.024937406950338
 40
0.0
 40
0.0
 40
0.4160006169442156
 40
0.4160006169442156
 40
0.4160006169442156
 40
0.4160006169442156
 10
3.17800492805091
 20
0.3225000000000001
 30
0.0
 10
3.179490711330201
 20
0.3225000000000001
 30
0.0
 10
3.180976494609492
 20
0.3225000000000001
 30
0.0
 10
3.207242875630441
 20
0.3225000000000001
 30
0.0
 10
3.23354970576978
 20
0.3225000000000001
 30
0.0
 10
3.261676750564658
 20
0.3225000000000001
 30
0.0
  0
SPLINE
  5
C5
330
1F
100
AcDbEntity
  8
0
  6
Continuous
 62
     7
370
    25
100
AcDbSpline
210
0.0
220
0.0
230
1.0
 70
    24
 71
     3
 72
    15
 73
    11
 74
     0
 42
0.000000001
 43
0.00000001
 40
0.359255588619473
 40
0.359255588619473
 40
0.359255588619473
 40
0.359255588619473
 40
0.390069251592421
 40
0.390069251592421
 40
0.407843356649156
 40
0.416730409177523
 40
0.434504514234258
 40
0.452278619290993
 40
0.461165671819361
 40
0.478939776876096
 40
0.478939776876096
 40
0.478939776876096
 40
0.478939776876096
 10
3.424375
 20
-0.3225000000000001
 30
0.0
 10
3.424375
 20
-0.3225000000000001
 30
0.0
 10
3.42389483261463
 20
-0.3225000000000001
 30
0.0
 10
3.422627237875279
 20
-0.3225000000000001
 30
0.0
 10
3.421639157895838
 20
-0.3225000000000001
 30
0.0
 10
3.419685120008571
 20
-0.3225000000000001
 30
0.0
 10
3.417344218955988
 20
-0.3225000000000001
 30
0.0
 10
3.414613436542988
 20
-0.3225000000000001
 30
0.0
 10
3.411788534272831
 20
-0.3225000000000001
 30
0.0
 10
3.409875411764791
 20
-0.3225000000000001
 30
0.0
 10
3.40875
 20
-0.3225000000000001
 30
0.0
  0
SPLINE
  5
C7
330
1F
100
AcDbEntity
  8
0
  6
Continuous
 62
     7
370
    25
100
AcDbSpline
210
0.0
220
0.0
230
1.0
 70
    24
 71
     3
 72
    17
 73
    13
 74
     0
 42
0.000000001
 43
0.00000001
 40
0.478939551300587
 40
0.478939551300587
 40
0.478939551300587
 40
0.478939551300587
 40
0.496530928397088
 40
0.502394720762589
 40
0.51998609785909
 40
0.537577474955591
 40
0.537577474955591
 40
0.543623995281324
 40
0.5496705156070579
 40
0.567810076584259
 40
0.567810076584259
 40
0.5986237395572089
 40
0.5986237395572089
 40
0.5986237395572089
 40
0.5986237395572089
 10
2.84625
 20
-0.3225000000000001
 30
0.0
 10
2.845136158111468
 20
-0.3225000000000001
 30
0.0
 10
2.84347631027037
 20
-0.3225000000000001
 30
0.0
 10
2.84078739402748
 20
-0.3225000000000001
 30
0.0
 10
2.838365927905181
 20
-0.3225000000000001
 30
0.0
 10
2.836267988662169
 20
-0.3225000000000001
 30
0.0
 10
2.83517137718622
 20
-0.3225000000000001
 30
0.0
 10
2.834608693301449
 20
-0.3225000000000001
 30
0.0
 10
2.833253080350272
 20
-0.3225000000000001
 30
0.0
 10
2.832382392177461
 20
-0.3225000000000001
 30
0.0
 10
2.831102981839031
 20
-0.3225000000000001
 30
0.0
 10
2.830625
 20
-0.3225000000000001
 30
0.0
 10
2.830625
 20
-0.3225000000000001
 30
0.0
  0
SPLINE
  5
C9
330
1F
100
AcDbEntity
  8
0
  6
Continuous
 62
     7
370
    25
100
AcDbSpline
210
0.0
220
0.0
230
1.0
 70
    24
 71
     3
 72
    17
 73
    13
 74
     0
 42
0.000000001
 43
0.00000001
 40
0.478939776876087
 40
0.478939776876087
 40
0.478939776876087
 40
0.478939776876087
 40
0.49653115397259
 40
0.502394946338091
 40
0.5199863234345931
 40
0.537577700531096
 40
0.537577700531096
 40
0.54362422085683
 40
0.549670741182565
 40
0.567810302159767
 40
0.567810302159767
 40
0.598623965132715
 40
0.598623965132715
 40
0.598623965132715
 40
0.598623965132715
 10
3.40875
 20
0.3225000000000001
 30
0.0
 10
3.40986384188852
 20
0.3225000000000001
 30
0.0
 10
3.411523692119189
 20
0.3225000000000001
 30
0.0
 10
3.41421260848746
 20
0.3225000000000001
 30
0.0
 10
3.416634075167921
 20
0.3225000000000001
 30
0.0
 10
3.41873201684737
 20
0.3225000000000001
 30
0.0
 10
3.419828629884721
 20
0.3225000000000001
 30
0.0
 10
3.420391313912331
 20
0.3225000000000001
 30
0.0
 10
3.42174692725237
 20
0.3225000000000001
 30
0.0
 10
3.422617614009362
 20
0.3225000000000001
 30
0.0
 10
3.423897021841031
 20
0.3225000000000001
 30
0.0
 10
3.424375
 20
0.3225000000000001
 30
0.0
 10
3.424375
 20
0.3225000000000001
 30
0.0
  0
SPLINE
  5
CB
330
1F
100
AcDbEntity
  8
0
  6
Continuous
 62
     7
370
    25
100
AcDbSpline
210
0.0
220
0.0
230
1.0
 70
    24
 71
     3
 72
    17
 73
    13
 74
     0
 42
0.000000001
 43
0.00000001
 40
0.359255363043966
 40
0.359255363043966
 40
0.359255363043966
 40
0.359255363043966
 40
0.390069026016916
 40
0.390069026016916
 40
0.408208586994117
 40
0.414255107319851
 40
0.420301627645584
 40
0.420301627645584
 40
0.437893004742085
 40
0.455484381838586
 40
0.461348174204086
 40
0.478939551300587
 40
0.478939551300587
 40
0.478939551300587
 40
0.478939551300587
 10
2.830625
 20
0.3225000000000001
 30
0.0
 10
2.830625
 20
0.3225000000000001
 30
0.0
 10
2.831102981839039
 20
0.3225000000000001
 30
0.0
 10
2.832382392177461
 20
0.3225000000000001
 30
0.0
 10
2.83325308035028
 20
0.3225000000000001
 30
0.0
 10
2.834608693301449
 20
0.3225000000000001
 30
0.0
 10
2.83517137718622
 20
0.3225000000000001
 30
0.0
 10
2.836267988662161
 20
0.3225000000000001
 30
0.0
 10
2.83836592790517
 20
0.3225000000000001
 30
0.0
 10
2.84078739402748
 20
0.3225000000000001
 30
0.0
 10
2.84347631027037
 20
0.3225000000000001
 30
0.0
 10
2.845136158111468
 20
0.3225000000000001
 30
0.0
 10
2.84625
 20
0.3225000000000001
 30
0.0
  0
CIRCLE
  5
D9
330
1F
100
AcDbEntity
  8
0
  6
Continuous
 62
     7
370
    25
100
AcDbCircle
 10
3.1275
 20
0.0
 30
0.0
 40
0.21875
  0
SPLINE
  5
E0
330
1F
100
AcDbEntity
  8
0
  6
Continuous
 62
     7
370
    25
100
AcDbSpline
210
0.0
220
0.0
230
1.0
 70
    24
 71
     3
 72
    16
 73
    12
 74
     0
 42
0.000000001
 43
0.00000001
 40
0.75
 40
0.75
 40
0.75
 40
0.75
 40
0.8
 40
0.8
 40
0.85
 40
0.85
 40
0.9
 40
0.9
 40
0.95
 40
0.95
 40
1.0
 40
1.0
 40
1.0
 40
1.0
 10
6.150319702866403
 20
-0.0000000000000014
 30
0.0
 10
6.150319702866403
 20
0.0471135258842528
 30
0.0
 10
6.150319702866403
 20
0.0939364744284873
 30
0.0
 10
6.150319702866403
 20
0.1835517260242085
 30
0.0
 10
6.150319702866403
 20
0.2257913181302678
 30
0.0
 10
6.150319702866403
 20
0.3020226043408393
 30
0.0
 10
6.150319702866403
 20
0.3355441344328386
 30
0.0
 10
6.150319702866403
 20
0.3909294058293678
 30
0.0
 10
6.150319702866403
 20
0.4124515529836691
 30
0.0
 10
6.150319702866403
 20
0.4415693133102923
 30
0.0
 10
6.150319702866403
 20
0.4489853398098229
 30
0.0
 10
6.150319702866403
 20
0.4489853398095109
 30
0.0
  0
SPLINE
  5
E3
330
1F
100
AcDbEntity
  8
0
  6
Continuous
 62
     7
370
    25
100
AcDbSpline
210
0.0
220
0.0
230
1.0
 70
    24
 71
     3
 72
    16
 73
    12
 74
     0
 42
0.000000001
 43
0.00000001
 40
0.0
 40
0.0
 40
0.0
 40
0.0
 40
0.125177218994021
 40
0.2499025334061532
 40
0.3750756720515437
 40
0.5000239737711577
 40
0.6248270273354807
 40
0.7500950652925547
 40
0.8747797054998869
 40
0.9999669404850655
 40
1.0
 40
1.0
 40
1.0
 40
1.0
 10
6.175000000000001
 20
0.0
 30
0.0
 10
6.175000000000002
 20
-0.0275421308138702
 30
0.0
 10
6.175000000000001
 20
-0.0825269620883099
 30
0.0
 10
6.175000000000002
 20
-0.1617910814300423
 30
0.0
 10
6.174999999999997
 20
-0.2349314707123787
 30
0.0
 10
6.175000000000002
 20
-0.2989042276067805
 30
0.0
 10
6.175000000000006
 20
-0.3515109059811501
 30
0.0
 10
6.174999999999973
 20
-0.3908009596665753
 30
0.0
 10
6.175000000000102
 20
-0.4135270941332945
 30
0.0
 10
6.17499999999978
 20
-0.4227066898498175
 30
0.0
 10
6.175000000000001
 20
-0.4199985635298176
 30
0.0
 10
6.175000000000001
 20
-0.4199978485551174
 30
0.0
  0
SPLINE
  5
E4
330
1F
100
AcDbEntity
  8
0
  6
Continuous
 62
     7
370
    25
100
AcDbSpline
210
0.0
220
0.0
230
1.0
 70
    24
 71
     3
 72
    16
 73
    12
 74
     0
 42
0.000000001
 43
0.00000001
 40
0.0
 40
0.0
 40
0.0
 40
0.0
 40
0.0001116702688662
 40
0.1249516046916743
 40
0.2503142519926299
 40
0.3750835467231745
 40
0.5003291863851729
 40
0.6245261421418533
 40
0.7500979625343516
 40
0.8757114151795777
 40
1.0
 40
1.0
 40
1.0
 40
1.0
 10
6.175000000000001
 20
0.4199927933671492
 30
0.0
 10
6.175000000000001
 20
0.4199951662977546
 30
0.0
 10
6.175000000000504
 20
0.4226503178433301
 30
0.0
 10
6.174999999999765
 20
0.4134202278276691
 30
0.0
 10
6.175000000000064
 20
0.3907142684146817
 30
0.0
 10
6.174999999999984
 20
0.3513888655499157
 30
0.0
 10
6.175000000000005
 20
0.2988573745461426
 30
0.0
 10
6.175
 20
0.2348279699801768
 30
0.0
 10
6.175000000000001
 20
0.1614989709760082
 30
0.0
 10
6.175000000000002
 20
0.0822783042168402
 30
0.0
 10
6.175
 20
0.0273289959274213
 30
0.0
 10
6.175000000000001
 20
0.0
 30
0.0
  0
LINE
  5
EB
330
1F
100
AcDbEntity
  8
0
  6
Continuous
 62
     7
370
    25
100
AcDbLine
 10
3.2525
 20
-1.25
 30
0.0
 11
3.40875
 21
-1.25
 31
0.0
  0
LINE
  5
EC
330
1F
100
AcDbEntity
  8
0
  6
Continuous
 62
     7
370
    25
100
AcDbLine
 10
2.84625
 20
-1.25
 30
0.0
 11
3.0025
 21
-1.25
 31
0.0
  0
LINE
  5
ED
330
1F
100
AcDbEntity
  8
0
  6
Continuous
 62
     7
370
    25
100
AcDbLine
 10
3.40875
 20
1.25
 30
0.0
 11
3.2525
 21
1.25
 31
0.0
  0
LINE
  5
EE
330
1F
100
AcDbEntity
  8
0
  6
Continuous
 62
     7
370
    25
100
AcDbLine
 10
3.0025
 20
1.25
 30
0.0
 11
2.84625
 21
1.25
 31
0.0
  0
LINE
  5
EF
330
1F
100
AcDbEntity
  8
0
  6
Continuous
 62
     7
370
    25
100
AcDbLine
 10
3.086215789
 20
1.105
 30
0.0
 11
3.0025
 21
1.25
 31
0.0
  0
LINE
  5
F0
330
1F
100
AcDbEntity
  8
0
  6
Continuous
 62
     7
370
    25
100
AcDbLine
 10
3.2525
 20
1.25
 30
0.0
 11
3.168784211
 21
1.105
 31
0.0
  0
LINE
  5
F1
330
1F
100
AcDbEntity
  8
0
  6
Continuous
 62
     7
370
    25
100
AcDbLine
 10
3.0025
 20
-1.25
 30
0.0
 11
3.086215789
 21
-1.105
 31
0.0
  0
LINE
  5
F2
330
1F
100
AcDbEntity
  8
0
  6
Continuous
 62
     7
370
    25
100
AcDbLine
 10
3.168784211
 20
-1.105
 30
0.0
 11
3.2525
 21
-1.25
 31
0.0
  0
LINE
  5
F3
330
1F
100
AcDbEntity
  8
0
  6
Continuous
 62
     7
370
    25
100
AcDbLine
 10
3.168784211
 20
1.105
 30
0.0
 11
3.086215789
 21
1.105
 31
0.0
  0
LINE
  5
F4
330
1F
100
AcDbEntity
  8
0
  6
Continuous
 62
     7
370
    25
100
AcDbLine
 10
3.086215789
 20
-1.105
 30
0.0
 11
3.168784211
 21
-1.105
 31
0.0
  0
LINE
  5
F5
330
1F
100
AcDbEntity
  8
0
  6
Continuous
 62
     7
370
    25
100
AcDbLine
 10
2.69
 20
0.875
 30
0.0
 11
0.0531950185
 21
0.4780089154
 31
0.0
  0
LINE
  5
F6
330
1F
100
AcDbEntity
  8
0
  6
Continuous
 62
     7
370
    25
100
AcDbLine
 10
0.0531950185
 20
-0.4780089154
 30
0.0
 11
2.69
 21
-0.875
 31
0.0
  0
LINE
  5
F7
330
1F
100
AcDbEntity
  8
0
  6
Continuous
 62
     7
370
    25
100
AcDbLine
 10
2.69
 20
-0.875
 30
0.0
 11
2.78375
 21
-0.875
 31
0.0
  0
LINE
  5
F8
330
1F
100
AcDbEntity
  8
0
  6
Continuous
 62
     7
370
    25
100
AcDbLine
 10
2.78375
 20
0.875
 30
0.0
 11
2.69
 21
0.875
 31
0.0
  0
LINE
  5
F9
330
1F
100
AcDbEntity
  8
0
  6
Continuous
 62
     7
370
    25
100
AcDbLine
 10
3.44
 20
-0.7625
 30
0.0
 11
3.55
 21
-0.6525
 31
0.0
  0
LINE
  5
FA
330
1F
100
AcDbEntity
  8
0
  6
Continuous
 62
     7
370
    25
100
AcDbLine
 10
3.55
 20
0.6525
 30
0.0
 11
3.44
 21
0.7625
 31
0.0
  0
LINE
  5
FB
330
1F
100
AcDbEntity
  8
0
  6
Continuous
 62
     7
370
    25
100
AcDbLine
 10
4.89
 20
-0.6525
 30
0.0
 11
6.1503197029
 21
-0.4489853398
 31
0.0
  0
LINE
  5
FC
330
1F
100
AcDbEntity
  8
0
  6
Continuous
 62
     7
370
    25
100
AcDbLine
 10
6.1503197029
 20
0.4489853398
 30
0.0
 11
4.89
 21
0.6525
 31
0.0
  0
LINE
  5
FD
330
1F
100
AcDbEntity
  8
0
  6
Continuous
 62
     7
370
    25
100
AcDbLine
 10
3.55
 20
-0.6525
 30
0.0
 11
4.89
 21
-0.6525
 31
0.0
  0
LINE
  5
FE
330
1F
100
AcDbEntity
  8
0
  6
Continuous
 62
     7
370
    25
100
AcDbLine
 10
4.89
 20
0.6525
 30
0.0
 11
3.55
 21
0.6525
 31
0.0
  0
LINE
  5
FF
330
1F
100
AcDbEntity
  8
0
  6
Continuous
 62
     7
370
    25
100
AcDbLine
 10
6.175
 20
0.4199999311
 30
0.0
 11
6.1503197029
 21
0.4489852662
 31
0.0
  0
LINE
  5
100
330
1F
100
AcDbEntity
  8
0
  6
Continuous
 62
     7
370
    25
100
AcDbLine
 10
6.1503197029
 20
-0.4489853345
 30
0.0
 11
6.175
 21
-0.4199999951
 31
0.0
  0
LINE
  5
101
330
1F
100
AcDbEntity
  8
0
  6
Continuous
 62
     7
370
    25
100
AcDbLine
 10
3.2525
 20
-1.25
 30
0.0
 11
3.2525
 21
-0.3379877278
 31
0.0
  0
LINE
  5
102
330
1F
100
AcDbEntity
  8
0
  6
Continuous
 62
     7
370
    25
100
AcDbLine
 10
3.2525
 20
-0.3379877278
 30
0.0
 11
3.2529830339
 21
-0.3375705242
 31
0.0
  0
LINE
  5
103
330
1F
100
AcDbEntity
  8
0
  6
Continuous
 62
     7
370
    25
100
AcDbLine
 10
3.2529830339
 20
-0.3375705242
 30
0.0
 11
3.40875
 21
-0.3375705242
 31
0.0
  0
LINE
  5
104
330
1F
100
AcDbEntity
  8
0
  6
Continuous
 62
     7
370
    25
100
AcDbLine
 10
3.2529830339
 20
-0.3375705242
 30
0.0
 11
3.2616767517
 21
-0.3225
 31
0.0
  0
LINE
  5
105
330
1F
100
AcDbEntity
  8
0
  6
Continuous
 62
     7
370
    25
100
AcDbLine
 10
3.40875
 20
-0.3225
 30
0.0
 11
3.2616767517
 21
-0.3225
 31
0.0
  0
LINE
  5
106
330
1F
100
AcDbEntity
  8
0
  6
Continuous
 62
     7
370
    25
100
AcDbLine
 10
3.40875
 20
-0.3225
 30
0.0
 11
3.40875
 21
-1.25
 31
0.0
  0
LINE
  5
107
330
1F
100
AcDbEntity
  8
0
  6
Continuous
 62
     7
370
    25
100
AcDbLine
 10
2.84625
 20
-0.3375705242
 30
0.0
 11
3.0020169661
 21
-0.3375705242
 31
0.0
  0
LINE
  5
108
330
1F
100
AcDbEntity
  8
0
  6
Continuous
 62
     7
370
    25
100
AcDbLine
 10
3.0020169661
 20
-0.3375705242
 30
0.0
 11
3.0025
 21
-0.3379877278
 31
0.0
  0
LINE
  5
109
330
1F
100
AcDbEntity
  8
0
  6
Continuous
 62
     7
370
    25
100
AcDbLine
 10
3.0025
 20
-1.25
 30
0.0
 11
3.0025
 21
-0.3379877278
 31
0.0
  0
LINE
  5
10A
330
1F
100
AcDbEntity
  8
0
  6
Continuous
 62
     7
370
    25
100
AcDbLine
 10
2.9933232483
 20
-0.3225
 30
0.0
 11
3.0020169661
 21
-0.3375705242
 31
0.0
  0
LINE
  5
10B
330
1F
100
AcDbEntity
  8
0
  6
Continuous
 62
     7
370
    25
100
AcDbLine
 10
2.84625
 20
-1.25
 30
0.0
 11
2.84625
 21
-0.3225
 31
0.0
  0
LINE
  5
10C
330
1F
100
AcDbEntity
  8
0
  6
Continuous
 62
     7
370
    25
100
AcDbLine
 10
2.9933232483
 20
-0.3225
 30
0.0
 11
2.84625
 21
-0.3225
 31
0.0
  0
LINE
  5
10D
330
1F
100
AcDbEntity
  8
0
  6
Continuous
 62
     7
370
    25
100
AcDbLine
 10
3.44
 20
-1.21875
 30
0.0
 11
3.44
 21
1.21875
 31
0.0
  0
LINE
  5
10E
330
1F
100
AcDbEntity
  8
0
  6
Continuous
 62
     7
370
    25
100
AcDbLine
 10
3.40875
 20
0.3375705242
 30
0.0
 11
3.2529830339
 21
0.3375705242
 31
0.0
  0
LINE
  5
10F
330
1F
100
AcDbEntity
  8
0
  6
Continuous
 62
     7
370
    25
100
AcDbLine
 10
3.2529830339
 20
0.3375705242
 30
0.0
 11
3.2525
 21
0.3379877278
 31
0.0
  0
LINE
  5
110
330
1F
100
AcDbEntity
  8
0
  6
Continuous
 62
     7
370
    25
100
AcDbLine
 10
3.2525
 20
0.3379877278
 30
0.0
 11
3.2525
 21
1.25
 31
0.0
  0
LINE
  5
111
330
1F
100
AcDbEntity
  8
0
  6
Continuous
 62
     7
370
    25
100
AcDbLine
 10
3.2616767517
 20
0.3225
 30
0.0
 11
3.2529830339
 21
0.3375705242
 31
0.0
  0
LINE
  5
112
330
1F
100
AcDbEntity
  8
0
  6
Continuous
 62
     7
370
    25
100
AcDbLine
 10
3.40875
 20
1.25
 30
0.0
 11
3.40875
 21
0.3225
 31
0.0
  0
LINE
  5
113
330
1F
100
AcDbEntity
  8
0
  6
Continuous
 62
     7
370
    25
100
AcDbLine
 10
3.2616767517
 20
0.3225
 30
0.0
 11
3.40875
 21
0.3225
 31
0.0
  0
LINE
  5
114
330
1F
100
AcDbEntity
  8
0
  6
Continuous
 62
     7
370
    25
100
AcDbLine
 10
2.815
 20
1.21875
 30
0.0
 11
2.815
 21
-1.21875
 31
0.0
  0
LINE
  5
115
330
1F
100
AcDbEntity
  8
0
  6
Continuous
 62
     7
370
    25
100
AcDbLine
 10
3.0025
 20
0.3379877278
 30
0.0
 11
3.0025
 21
1.25
 31
0.0
  0
LINE
  5
116
330
1F
100
AcDbEntity
  8
0
  6
Continuous
 62
     7
370
    25
100
AcDbLine
 10
3.0025
 20
0.3379877278
 30
0.0
 11
3.0020169661
 21
0.3375705242
 31
0.0
  0
LINE
  5
117
330
1F
100
AcDbEntity
  8
0
  6
Continuous
 62
     7
370
    25
100
AcDbLine
 10
3.0020169661
 20
0.3375705242
 30
0.0
 11
2.84625
 21
0.3375705242
 31
0.0
  0
LINE
  5
118
330
1F
100
AcDbEntity
  8
0
  6
Continuous
 62
     7
370
    25
100
AcDbLine
 10
3.0020169661
 20
0.3375705242
 30
0.0
 11
2.9933232483
 21
0.3225
 31
0.0
  0
LINE
  5
119
330
1F
100
AcDbEntity
  8
0
  6
Continuous
 62
     7
370
    25
100
AcDbLine
 10
2.84625
 20
0.3225
 30
0.0
 11
2.9933232483
 21
0.3225
 31
0.0
  0
LINE
  5
11A
330
1F
100
AcDbEntity
  8
0
  6
Continuous
 62
     7
370
    25
100
AcDbLine
 10
2.84625
 20
0.3225
 30
0.0
 11
2.84625
 21
1.25
 31
0.0
  0
LINE
  5
11B
330
1F
100
AcDbEntity
  8
0
  6
Continuous
 62
     7
370
    25
100
AcDbLine
 10
3.1694059682
 20
-0.3374121118
 30
0.0
 11
3.168784211
 21
-0.3379489747
 31
0.0
  0
LINE
  5
11C
330
1F
100
AcDbEntity
  8
0
  6
Continuous
 62
     7
370
    25
100
AcDbLine
 10
3.1694059682
 20
-0.3374121118
 30
0.0
 11
3.1780049281
 21
-0.3225
 31
0.0
  0
LINE
  5
11D
330
1F
100
AcDbEntity
  8
0
  6
Continuous
 62
     7
370
    25
100
AcDbLine
 10
3.0769950719
 20
-0.3225
 30
0.0
 11
3.0855940318
 21
-0.3374121118
 31
0.0
  0
LINE
  5
11E
330
1F
100
AcDbEntity
  8
0
  6
Continuous
 62
     7
370
    25
100
AcDbLine
 10
3.086215789
 20
-0.3379489747
 30
0.0
 11
3.0855940318
 21
-0.3374121118
 31
0.0
  0
LINE
  5
11F
330
1F
100
AcDbEntity
  8
0
  6
Continuous
 62
     7
370
    25
100
AcDbLine
 10
3.0855940318
 20
0.3374121118
 30
0.0
 11
3.086215789
 21
0.3379489747
 31
0.0
  0
LINE
  5
120
330
1F
100
AcDbEntity
  8
0
  6
Continuous
 62
     7
370
    25
100
AcDbLine
 10
3.0855940318
 20
0.3374121118
 30
0.0
 11
3.0769950719
 21
0.3225
 31
0.0
  0
LINE
  5
121
330
1F
100
AcDbEntity
  8
0
  6
Continuous
 62
     7
370
    25
100
AcDbLine
 10
3.1780049281
 20
0.3225
 30
0.0
 11
3.1694059682
 21
0.3374121118
 31
0.0
  0
LINE
  5
122
330
1F
100
AcDbEntity
  8
0
  6
Continuous
 62
     7
370
    25
100
AcDbLine
 10
3.168784211
 20
0.3379489747
 30
0.0
 11
3.1694059682
 21
0.3374121118
 31
0.0
  0
LINE
  5
123
330
1F
100
AcDbEntity
  8
0
  6
Continuous
 62
     7
370
    25
100
AcDbLine
 10
3.4397128388
 20
-0.338122361
 30
0.0
 11
3.424375
 21
-0.3225
 31
0.0
  0
LINE
  5
124
330
1F
100
AcDbEntity
  8
0
  6
Continuous
 62
     7
370
    25
100
AcDbLine
 10
2.830625
 20
-0.3225
 30
0.0
 11
2.8152871612
 21
-0.338122361
 31
0.0
  0
LINE
  5
125
330
1F
100
AcDbEntity
  8
0
  6
Continuous
 62
     7
370
    25
100
AcDbLine
 10
3.424375
 20
0.3225
 30
0.0
 11
3.4397128388
 21
0.338122361
 31
0.0
  0
LINE
  5
126
330
1F
100
AcDbEntity
  8
0
  6
Continuous
 62
     7
370
    25
100
AcDbLine
 10
2.8152871612
 20
0.338122361
 30
0.0
 11
2.830625
 21
0.3225
 31
0.0
  0
LINE
  5
127
330
1F
100
AcDbEntity
  8
0
  6
Continuous
 62
     7
370
    25
100
AcDbLine
 10
3.086215789
 20
0.3379489747
 30
0.0
 11
3.086215789
 21
1.105
 31
0.0
  0
LINE
  5
128
330
1F
100
AcDbEntity
  8
0
  6
Continuous
 62
     7
370
    25
100
AcDbLine
 10
3.168784211
 20
0.3379489747
 30
0.0
 11
3.168784211
 21
1.105
 31
0.0
  0
LINE
  5
129
330
1F
100
AcDbEntity
  8
0
  6
Continuous
 62
     7
370
    25
100
AcDbLine
 10
3.086215789
 20
-1.105
 30
0.0
 11
3.086215789
 21
-0.3379489747
 31
0.0
  0
LINE
  5
12A
330
1F
100
AcDbEntity
  8
0
  6
Continuous
 62
     7
370
    25
100
AcDbLine
 10
3.168784211
 20
-1.105
 30
0.0
 11
3.168784211
 21
-0.3379489747
 31
0.0
  0
LINE
  5
12B
330
1F
100
AcDbEntity
  8
0
  6
Continuous
 62
     7
370
    25
100
AcDbLine
 10
3.424375
 20
-0.3225
 30
0.0
 11
3.44
 21
-0.338125
 31
0.0
  0
LINE
  5
12C
330
1F
100
AcDbEntity
  8
0
  6
Continuous
 62
     7
370
    25
100
AcDbLine
 10
2.815
 20
-0.338125
 30
0.0
 11
2.830625
 21
-0.3225
 31
0.0
  0
LINE
  5
12D
330
1F
100
AcDbEntity
  8
0
  6
Continuous
 62
     7
370
    25
100
AcDbLine
 10
3.44
 20
0.338125
 30
0.0
 11
3.424375
 21
0.3225
 31
0.0
  0
LINE
  5
12E
330
1F
100
AcDbEntity
  8
0
  6
Continuous
 62
     7
370
    25
100
AcDbLine
 10
2.830625
 20
0.3225
 30
0.0
 11
2.815
 21
0.338125
 31
0.0
  0
LINE
  5
12F
330
1F
100
AcDbEntity
  8
0
  6
Continuous
 62
     7
370
    25
100
AcDbLine
 10
3.0855940318
 20
-0.3374121118
 30
0.0
 11
3.1694059682
 21
-0.3374121118
 31
0.0
  0
LINE
  5
130
330
1F
100
AcDbEntity
  8
0
  6
Continuous
 62
     7
370
    25
100
AcDbLine
 10
3.1780049281
 20
-0.3225
 30
0.0
 11
3.0769950719
 21
-0.3225
 31
0.0
  0
LINE
  5
131
330
1F
100
AcDbEntity
  8
0
  6
Continuous
 62
     7
370
    25
100
AcDbLine
 10
3.1694059682
 20
0.3374121118
 30
0.0
 11
3.0855940318
 21
0.3374121118
 31
0.0
  0
LINE
  5
132
330
1F
100
AcDbEntity
  8
0
  6
Continuous
 62
     7
370
    25
100
AcDbLine
 10
3.0769950719
 20
0.3225
 30
0.0
 11
3.1780049281
 21
0.3225
 31
0.0
  0
LINE
  5
133
330
1F
100
AcDbEntity
  8
0
  6
Continuous
 62
     7
370
    25
100
AcDbLine
 10
2.69
 20
-0.875
 30
0.0
 11
2.69
 21
0.875
 31
0.0
  0
LINE
  5
134
330
1F
100
AcDbEntity
  8
0
  6
Continuous
 62
     7
370
    25
100
AcDbLine
 10
3.55
 20
0.6525
 30
0.0
 11
3.55
 21
-0.6525
 31
0.0
  0
LINE
  5
135
330
1F
100
AcDbEntity
  8
0
  6
Continuous
 62
     7
370
    25
100
AcDbLine
 10
4.89
 20
-0.6524999997
 30
0.0
 11
4.89
 21
0.6525
 31
0.0
  0
LINE
  5
136
330
1F
100
AcDbEntity
  8
0
  6
Continuous
 62
     7
370
    25
100
AcDbLine
 10
6.1503197029
 20
-0.4489853398
 30
0.0
 11
6.1503197029
 21
0.0
 31
0.0
  0
LINE
  5
137
330
1F
100
AcDbEntity
  8
0
  6
Continuous
 62
     7
370
    25
100
AcDbLine
 10
0.0
 20
0.4162054582
 30
0.0
 11
0.0
 21
-0.4162054582
 31
0.0
  0
LINE
  5
138
330
1F
100
AcDbEntity
  8
0
  6
Continuous
 62
     8
370
    25
100
AcDbLine
 10
2.78375
 20
0.875
 30
0.0
 11
2.78375
 21
-0.875
 31
0.0
  0
LINE
  5
139
330
1F
100
AcDbEntity
  8
0
  6
Continuous
 62
     8
370
    25
100
AcDbLine
 10
0.0531950185
 20
-0.4780089154
 30
0.0
 11
0.0531950185
 21
0.4780089154
 31
0.0
  0
ARC
  5
13A
330
1F
100
AcDbEntity
  8
0
  6
Continuous
 62
     7
370
    25
100
AcDbCircle
 10
3.40875
 20
-1.21875
 30
0.0
 40
0.03125
100
AcDbArc
 50
270.0
 51
0.0
  0
ARC
  5
13B
330
1F
100
AcDbEntity
  8
0
  6
Continuous
 62
     7
370
    25
100
AcDbCircle
 10
2.84625
 20
-1.21875
 30
0.0
 40
0.0312499999999996
100
AcDbArc
 50
180.0
 51
270.0
  0
ARC
  5
13C
330
1F
100
AcDbEntity
  8
0
  6
Continuous
 62
     7
370
    25
100
AcDbCircle
 10
3.40875
 20
1.21875
 30
0.0
 40
0.03125
100
AcDbArc
 50
0.0
 51
90.0
  0
ARC
  5
13D
330
1F
100
AcDbEntity
  8
0
  6
Continuous
 62
     7
370
    25
100
AcDbCircle
 10
2.84625
 20
1.21875
 30
0.0
 40
0.0312499999999998
100
AcDbArc
 50
90.0
 51
180.0
  0
ARC
  5
13E
330
1F
100
AcDbEntity
  8
0
  6
Continuous
 62
     7
370
    25
100
AcDbCircle
 10
2.78375
 20
-0.90625
 30
0.0
 40
0.03125
100
AcDbArc
 50
0.0
 51
90.0
  0
ARC
  5
13F
330
1F
100
AcDbEntity
  8
0
  6
Continuous
 62
     7
370
    25
100
AcDbCircle
 10
2.78375
 20
0.90625
 30
0.0
 40
0.0312500000000006
100
AcDbArc
 50
270.0
 51
0.0
  0
ARC
  5
140
330
1F
100
AcDbEntity
  8
0
  6
Continuous
 62
     7
370
    25
100
AcDbCircle
 10
0.0625
 20
-0.4162054582
 30
0.0
 40
0.0624999999999998
100
AcDbArc
 50
180.0
 51
261.4379906708
  0
ARC
  5
141
330
1F
100
AcDbEntity
  8
0
  6
Continuous
 62
     7
370
    25
100
AcDbCircle
 10
0.0625
 20
0.4162054582
 30
0.0
 40
0.0624999999999999
100
AcDbArc
 50
98.5620093292
 51
180.0
  0
ENDSEC
  0
SECTION
  2
OBJECTS
  0
DICTIONARY
  5
C
330
0
100
AcDbDictionary
281
     1
  3
ACAD_GROUP
350
D
  3
ACAD_LAYOUT
350
1A
  3
ACAD_MLINESTYLE
350
17
  3
ACAD_PLOTSETTINGS
350
19
  3
ACAD_PLOTSTYLENAME
350
E
  3
ACAD_SCALELIST
350
47
  0
DICTIONARY
  5
D
102
{ACAD_REACTORS
330
C
102
}
330
C
100
AcDbDictionary
281
     1
  0
DICTIONARY
  5
1A
102
{ACAD_REACTORS
330
C
102
}
330
C
100
AcDbDictionary
281
     1
  3
Layout1
350
1E
  3
Layout2
350
26
  3
Model
350
22
  0
DICTIONARY
  5
17
102
{ACAD_REACTORS
330
C
102
}
330
C
100
AcDbDictionary
281
     1
  3
Standard
350
18
  0
DICTIONARY
  5
19
102
{ACAD_REACTORS
330
C
102
}
330
C
100
AcDbDictionary
281
     1
  0
ACDBDICTIONARYWDFLT
  5
E
102
{ACAD_REACTORS
330
C
102
}
330
C
100
AcDbDictionary
281
     1
  3
Normal
350
F
100
AcDbDictionaryWithDefault
340
F
  0
DICTIONARY
  5
47
102
{ACAD_REACTORS
330
C
102
}
330
C
100
AcDbDictionary
281
     1
  3
A0
350
48
  3
A1
350
49
  3
A2
350
4A
  3
A3
350
4B
  3
A4
350
4C
  3
A5
350
4D
  3
A6
350
4E
  3
A7
350
4F
  3
A8
350
50
  3
A9
350
51
  3
B0
350
52
  3
B1
350
53
  3
B2
350
54
  3
B3
350
55
  3
B4
350
56
  3
B5
350
57
  3
B6
350
58
  3
B7
350
59
  3
B8
350
5A
  3
B9
350
5B
  3
C0
350
5C
  3
C1
350
5D
  3
C2
350
5E
  3
C3
350
5F
  3
C4
350
60
  3
C5
350
61
  3
C6
350
62
  3
C7
350
63
  3
C8
350
64
  3
C9
350
65
  3
D0
350
66
  3
D1
350
67
  3
D2
350
68
  0
LAYOUT
  5
1E
102
{ACAD_REACTORS
330
1A
102
}
330
1A
100
AcDbPlotSettings
  1

  2
none_device
  4

  6

 40
0.0
 41
0.0
 42
0.0
 43
0.0
 44
0.0
 45
0.0
 46
0.0
 47
0.0
 48
0.0
 49
0.0
140
0.0
141
0.0
142
1.0
143
1.0
 70
   688
 72
     0
 73
     0
 74
     5
  7

 75
    16
147
1.0
148
0.0
149
0.0
100
AcDbLayout
  1
Layout1
 70
     1
 71
     1
 10
0.0
 20
0.0
 11
12.0
 21
9.0
 12
0.0
 22
0.0
 32
0.0
 14
1.0000000000E+20
 24
1.0000000000E+20
 34
1.0000000000E+20
 15
-1.0000000000E+20
 25
-1.0000000000E+20
 35
-1.0000000000E+20
146
0.0
 13
0.0
 23
0.0
 33
0.0
 16
1.0
 26
0.0
 36
0.0
 17
0.0
 27
1.0
 37
0.0
 76
     0
330
1B
  0
LAYOUT
  5
26
102
{ACAD_REACTORS
330
1A
102
}
330
1A
100
AcDbPlotSettings
  1

  2
none_device
  4

  6

 40
0.0
 41
0.0
 42
0.0
 43
0.0
 44
0.0
 45
0.0
 46
0.0
 47
0.0
 48
0.0
 49
0.0
140
0.0
141
0.0
142
1.0
143
1.0
 70
   688
 72
     0
 73
     0
 74
     5
  7

 75
    16
147
1.0
148
0.0
149
0.0
100
AcDbLayout
  1
Layout2
 70
     1
 71
     2
 10
0.0
 20
0.0
 11
0.0
 21
0.0
 12
0.0
 22
0.0
 32
0.0
 14
0.0
 24
0.0
 34
0.0
 15
0.0
 25
0.0
 35
0.0
146
0.0
 13
0.0
 23
0.0
 33
0.0
 16
1.0
 26
0.0
 36
0.0
 17
0.0
 27
1.0
 37
0.0
 76
     0
330
23
  0
LAYOUT
  5
22
102
{ACAD_REACTORS
330
1A
102
}
330
1A
100
AcDbPlotSettings
  1

  2
none_device
  4
ANSI_A_(11.00_x_8.50_Inches)
  6

 40
6.35
 41
19.05
 42
6.35000508
 43
19.05000254
 44
279.4
 45
215.9
 46
-4.95300254
 47
88.89999873
 48
0.0
 49
0.0
140
0.0
141
0.0
142
1.763562753
143
1.0
 70
  1696
 72
     0
 73
     0
 74
     0
  7

 75
     0
147
0.5913241897
148
-39.4088153714
149
0.0
100
AcDbLayout
  1
Model
 70
     1
 71
     0
 10
0.0
 20
0.0
 11
12.0
 21
9.0
 12
0.0
 22
0.0
 32
0.0
 14
0.0
 24
-1.25
 34
0.0
 15
6.175
 25
1.25
 35
0.0
146
0.0
 13
0.0
 23
0.0
 33
0.0
 16
1.0
 26
0.0
 36
0.0
 17
0.0
 27
1.0
 37
0.0
 76
     0
330
1F
331
29
  0
MLINESTYLE
  5
18
102
{ACAD_REACTORS
330
17
102
}
330
17
100
AcDbMlineStyle
  2
Standard
 70
     0
  3

 62
   256
 51
90.0
 52
90.0
 71
     2
 49
0.5
 62
   256
  6
BYLAYER
 49
-0.5
 62
   256
  6
BYLAYER
  0
ACDBPLACEHOLDER
  5
F
102
{ACAD_REACTORS
330
E
102
}
330
E
  0
SCALE
  5
48
102
{ACAD_REACTORS
330
47
102
}
330
47
100
AcDbScale
 70
     0
300
1:1
140
1.0
141
1.0
290
     1
  0
SCALE
  5
49
102
{ACAD_REACTORS
330
47
102
}
330
47
100
AcDbScale
 70
     0
300
1:2
140
1.0
141
2.0
290
     0
  0
SCALE
  5
4A
102
{ACAD_REACTORS
330
47
102
}
330
47
100
AcDbScale
 70
     0
300
1:4
140
1.0
141
4.0
290
     0
  0
SCALE
  5
4B
102
{ACAD_REACTORS
330
47
102
}
330
47
100
AcDbScale
 70
     0
300
1:5
140
1.0
141
5.0
290
     0
  0
SCALE
  5
4C
102
{ACAD_REACTORS
330
47
102
}
330
47
100
AcDbScale
 70
     0
300
1:8
140
1.0
141
8.0
290
     0
  0
SCALE
  5
4D
102
{ACAD_REACTORS
330
47
102
}
330
47
100
AcDbScale
 70
     0
300
1:10
140
1.0
141
10.0
290
     0
  0
SCALE
  5
4E
102
{ACAD_REACTORS
330
47
102
}
330
47
100
AcDbScale
 70
     0
300
1:16
140
1.0
141
16.0
290
     0
  0
SCALE
  5
4F
102
{ACAD_REACTORS
330
47
102
}
330
47
100
AcDbScale
 70
     0
300
1:20
140
1.0
141
20.0
290
     0
  0
SCALE
  5
50
102
{ACAD_REACTORS
330
47
102
}
330
47
100
AcDbScale
 70
     0
300
1:30
140
1.0
141
30.0
290
     0
  0
SCALE
  5
51
102
{ACAD_REACTORS
330
47
102
}
330
47
100
AcDbScale
 70
     0
300
1:40
140
1.0
141
40.0
290
     0
  0
SCALE
  5
52
102
{ACAD_REACTORS
330
47
102
}
330
47
100
AcDbScale
 70
     0
300
1:50
140
1.0
141
50.0
290
     0
  0
SCALE
  5
53
102
{ACAD_REACTORS
330
47
102
}
330
47
100
AcDbScale
 70
     0
300
1:100
140
1.0
141
100.0
290
     0
  0
SCALE
  5
54
102
{ACAD_REACTORS
330
47
102
}
330
47
100
AcDbScale
 70
     0
300
2:1
140
2.0
141
1.0
290
     0
  0
SCALE
  5
55
102
{ACAD_REACTORS
330
47
102
}
330
47
100
AcDbScale
 70
     0
300
4:1
140
4.0
141
1.0
290
     0
  0
SCALE
  5
56
102
{ACAD_REACTORS
330
47
102
}
330
47
100
AcDbScale
 70
     0
300
8:1
140
8.0
141
1.0
290
     0
  0
SCALE
  5
57
102
{ACAD_REACTORS
330
47
102
}
330
47
100
AcDbScale
 70
     0
300
10:1
140
10.0
141
1.0
290
     0
  0
SCALE
  5
58
102
{ACAD_REACTORS
330
47
102
}
330
47
100
AcDbScale
 70
     0
300
100:1
140
100.0
141
1.0
290
     0
  0
SCALE
  5
59
102
{ACAD_REACTORS
330
47
102
}
330
47
100
AcDbScale
 70
     0
300
1/128" = 1'-0"
140
0.0078125
141
12.0
290
     0
  0
SCALE
  5
5A
102
{ACAD_REACTORS
330
47
102
}
330
47
100
AcDbScale
 70
     0
300
1/64" = 1'-0"
140
0.015625
141
12.0
290
     0
  0
SCALE
  5
5B
102
{ACAD_REACTORS
330
47
102
}
330
47
100
AcDbScale
 70
     0
300
1/32" = 1'-0"
140
0.03125
141
12.0
290
     0
  0
SCALE
  5
5C
102
{ACAD_REACTORS
330
47
102
}
330
47
100
AcDbScale
 70
     0
300
1/16" = 1'-0"
140
0.0625
141
12.0
290
     0
  0
SCALE
  5
5D
102
{ACAD_REACTORS
330
47
102
}
330
47
100
AcDbScale
 70
     0
300
3/32" = 1'-0"
140
0.09375
141
12.0
290
     0
  0
SCALE
  5
5E
102
{ACAD_REACTORS
330
47
102
}
330
47
100
AcDbScale
 70
     0
300
1/8" = 1'-0"
140
0.125
141
12.0
290
     0
  0
SCALE
  5
5F
102
{ACAD_REACTORS
330
47
102
}
330
47
100
AcDbScale
 70
     0
300
3/16" = 1'-0"
140
0.1875
141
12.0
290
     0
  0
SCALE
  5
60
102
{ACAD_REACTORS
330
47
102
}
330
47
100
AcDbScale
 70
     0
300
1/4" = 1'-0"
140
0.25
141
12.0
290
     0
  0
SCALE
  5
61
102
{ACAD_REACTORS
330
47
102
}
330
47
100
AcDbScale
 70
     0
300
3/8" = 1'-0"
140
0.375
141
12.0
290
     0
  0
SCALE
  5
62
102
{ACAD_REACTORS
330
47
102
}
330
47
100
AcDbScale
 70
     0
300
1/2" = 1'-0"
140
0.5
141
12.0
290
     0
  0
SCALE
  5
63
102
{ACAD_REACTORS
330
47
102
}
330
47
100
AcDbScale
 70
     0
300
3/4" = 1'-0"
140
0.75
141
12.0
290
     0
  0
SCALE
  5
64
102
{ACAD_REACTORS
330
47
102
}
330
47
100
AcDbScale
 70
     0
300
1" = 1'-0"
140
1.0
141
12.0
290
     0
  0
SCALE
  5
65
102
{ACAD_REACTORS
330
47
102
}
330
47
100
AcDbScale
 70
     0
300
1-1/2" = 1'-0"
140
1.5
141
12.0
290
     0
  0
SCALE
  5
66
102
{ACAD_REACTORS
330
47
102
}
330
47
100
AcDbScale
 70
     0
300
3" = 1'-0"
140
3.0
141
12.0
290
     0
  0
SCALE
  5
67
102
{ACAD_REACTORS
330
47
102
}
330
47
100
AcDbScale
 70
     0
300
6" = 1'-0"
140
6.0
141
12.0
290
     0
  0
SCALE
  5
68
102
{ACAD_REACTORS
330
47
102
}
330
47
100
AcDbScale
 70
     0
300
1'-0" = 1'-0"
140
12.0
141
12.0
290
     0
  0
ENDSEC
  0
EOF
