ISO-10303-21;
HEADER;
/* Generated by software containing ST-Developer
 * from STEP Tools, Inc. (www.steptools.com) 
 */

FILE_DESCRIPTION(
/* description */ (''),
/* implementation_level */ '2;1');

FILE_NAME(
/* name */ '1310-.180-1-BR.step',
/* time_stamp */ '2025-11-21T10:20:05-06:00',
/* author */ (''),
/* organization */ (''),
/* preprocessor_version */ 'ST-DEVELOPER v20.1',
/* originating_system */ 'Autodesk Translation Framework v14.21.0.0',
/* authorisation */ '');

FILE_SCHEMA (('AUTOMOTIVE_DESIGN { 1 0 10303 214 3 1 1 }'));
ENDSEC;

DATA;
#10=MECHANICAL_DESIGN_GEOMETRIC_PRESENTATION_REPRESENTATION('',(#13),#292);
#11=SHAPE_REPRESENTATION_RELATIONSHIP('SRR','None',#302,#12);
#12=ADVANCED_BREP_SHAPE_REPRESENTATION('',(#14),#291);
#13=STYLED_ITEM('',(#311),#14);
#14=MANIFOLD_SOLID_BREP('Body1',#154);
#15=TOROIDAL_SURFACE('',#175,0.131299212598426,0.0787401574803158);
#16=CYLINDRICAL_SURFACE('',#173,0.125);
#17=CYLINDRICAL_SURFACE('',#181,0.0525590551181102);
#18=CYLINDRICAL_SURFACE('',#185,0.09);
#19=PLANE('',#172);
#20=PLANE('',#189);
#21=FACE_OUTER_BOUND('',#31,.T.);
#22=FACE_OUTER_BOUND('',#32,.T.);
#23=FACE_OUTER_BOUND('',#33,.T.);
#24=FACE_OUTER_BOUND('',#34,.T.);
#25=FACE_OUTER_BOUND('',#35,.T.);
#26=FACE_OUTER_BOUND('',#36,.T.);
#27=FACE_OUTER_BOUND('',#37,.T.);
#28=FACE_OUTER_BOUND('',#38,.T.);
#29=FACE_OUTER_BOUND('',#39,.T.);
#30=FACE_OUTER_BOUND('',#40,.T.);
#31=EDGE_LOOP('',(#100,#101,#102,#103,#104));
#32=EDGE_LOOP('',(#105));
#33=EDGE_LOOP('',(#106,#107,#108,#109,#110));
#34=EDGE_LOOP('',(#111,#112,#113,#114,#115,#116));
#35=EDGE_LOOP('',(#117,#118,#119,#120,#121));
#36=EDGE_LOOP('',(#122,#123,#124,#125));
#37=EDGE_LOOP('',(#126,#127,#128,#129));
#38=EDGE_LOOP('',(#130,#131,#132,#133));
#39=EDGE_LOOP('',(#134));
#40=EDGE_LOOP('',(#135,#136,#137,#138,#139));
#41=LINE('',#253,#48);
#42=LINE('',#259,#49);
#43=LINE('',#273,#50);
#44=LINE('',#277,#51);
#45=LINE('',#281,#52);
#46=LINE('',#285,#53);
#47=LINE('',#288,#54);
#48=VECTOR('',#199,0.115157480314961);
#49=VECTOR('',#208,0.125);
#50=VECTOR('',#225,0.0525590551181102);
#51=VECTOR('',#230,0.0712795275590551);
#52=VECTOR('',#235,0.09);
#53=VECTOR('',#240,0.0712795275590551);
#54=VECTOR('',#245,0.0940541179612426);
#55=CIRCLE('',#169,0.125);
#56=CIRCLE('',#170,0.125);
#57=CIRCLE('',#171,0.105314960629921);
#58=CIRCLE('',#174,0.125);
#59=CIRCLE('',#176,0.0631082359224853);
#60=CIRCLE('',#177,0.0787401574803158);
#61=CIRCLE('',#178,0.0525590551181102);
#62=CIRCLE('',#179,0.0525590551181102);
#63=CIRCLE('',#180,0.0631082359224853);
#64=CIRCLE('',#182,0.0525590551181102);
#65=CIRCLE('',#184,0.09);
#66=CIRCLE('',#186,0.09);
#67=CIRCLE('',#188,0.0525590551181102);
#68=VERTEX_POINT('',#248);
#69=VERTEX_POINT('',#249);
#70=VERTEX_POINT('',#252);
#71=VERTEX_POINT('',#257);
#72=VERTEX_POINT('',#261);
#73=VERTEX_POINT('',#262);
#74=VERTEX_POINT('',#264);
#75=VERTEX_POINT('',#266);
#76=VERTEX_POINT('',#271);
#77=VERTEX_POINT('',#275);
#78=VERTEX_POINT('',#279);
#79=VERTEX_POINT('',#283);
#80=EDGE_CURVE('',#68,#69,#55,.T.);
#81=EDGE_CURVE('',#69,#68,#56,.T.);
#82=EDGE_CURVE('',#68,#70,#41,.T.);
#83=EDGE_CURVE('',#70,#70,#57,.T.);
#84=EDGE_CURVE('',#71,#71,#58,.T.);
#85=EDGE_CURVE('',#71,#69,#42,.T.);
#86=EDGE_CURVE('',#72,#73,#59,.T.);
#87=EDGE_CURVE('',#73,#74,#60,.T.);
#88=EDGE_CURVE('',#75,#74,#61,.T.);
#89=EDGE_CURVE('',#74,#75,#62,.T.);
#90=EDGE_CURVE('',#73,#72,#63,.T.);
#91=EDGE_CURVE('',#76,#76,#64,.T.);
#92=EDGE_CURVE('',#76,#75,#43,.T.);
#93=EDGE_CURVE('',#77,#77,#65,.T.);
#94=EDGE_CURVE('',#77,#76,#44,.T.);
#95=EDGE_CURVE('',#78,#78,#66,.T.);
#96=EDGE_CURVE('',#78,#77,#45,.T.);
#97=EDGE_CURVE('',#79,#79,#67,.T.);
#98=EDGE_CURVE('',#79,#78,#46,.T.);
#99=EDGE_CURVE('',#72,#71,#47,.T.);
#100=ORIENTED_EDGE('',*,*,#80,.T.);
#101=ORIENTED_EDGE('',*,*,#81,.T.);
#102=ORIENTED_EDGE('',*,*,#82,.T.);
#103=ORIENTED_EDGE('',*,*,#83,.T.);
#104=ORIENTED_EDGE('',*,*,#82,.F.);
#105=ORIENTED_EDGE('',*,*,#83,.F.);
#106=ORIENTED_EDGE('',*,*,#84,.F.);
#107=ORIENTED_EDGE('',*,*,#85,.T.);
#108=ORIENTED_EDGE('',*,*,#80,.F.);
#109=ORIENTED_EDGE('',*,*,#81,.F.);
#110=ORIENTED_EDGE('',*,*,#85,.F.);
#111=ORIENTED_EDGE('',*,*,#86,.T.);
#112=ORIENTED_EDGE('',*,*,#87,.T.);
#113=ORIENTED_EDGE('',*,*,#88,.F.);
#114=ORIENTED_EDGE('',*,*,#89,.F.);
#115=ORIENTED_EDGE('',*,*,#87,.F.);
#116=ORIENTED_EDGE('',*,*,#90,.T.);
#117=ORIENTED_EDGE('',*,*,#91,.F.);
#118=ORIENTED_EDGE('',*,*,#92,.T.);
#119=ORIENTED_EDGE('',*,*,#88,.T.);
#120=ORIENTED_EDGE('',*,*,#89,.T.);
#121=ORIENTED_EDGE('',*,*,#92,.F.);
#122=ORIENTED_EDGE('',*,*,#93,.F.);
#123=ORIENTED_EDGE('',*,*,#94,.T.);
#124=ORIENTED_EDGE('',*,*,#91,.T.);
#125=ORIENTED_EDGE('',*,*,#94,.F.);
#126=ORIENTED_EDGE('',*,*,#95,.F.);
#127=ORIENTED_EDGE('',*,*,#96,.T.);
#128=ORIENTED_EDGE('',*,*,#93,.T.);
#129=ORIENTED_EDGE('',*,*,#96,.F.);
#130=ORIENTED_EDGE('',*,*,#97,.F.);
#131=ORIENTED_EDGE('',*,*,#98,.T.);
#132=ORIENTED_EDGE('',*,*,#95,.T.);
#133=ORIENTED_EDGE('',*,*,#98,.F.);
#134=ORIENTED_EDGE('',*,*,#97,.T.);
#135=ORIENTED_EDGE('',*,*,#86,.F.);
#136=ORIENTED_EDGE('',*,*,#99,.T.);
#137=ORIENTED_EDGE('',*,*,#84,.T.);
#138=ORIENTED_EDGE('',*,*,#99,.F.);
#139=ORIENTED_EDGE('',*,*,#90,.F.);
#140=CONICAL_SURFACE('',#168,0.115157480314961,0.78539816339745);
#141=CONICAL_SURFACE('',#183,0.0712795275590551,1.04719755119659);
#142=CONICAL_SURFACE('',#187,0.0712795275590551,1.04719755119659);
#143=CONICAL_SURFACE('',#190,0.0940541179612426,0.523598775598308);
#144=ADVANCED_FACE('',(#21),#140,.T.);
#145=ADVANCED_FACE('',(#22),#19,.T.);
#146=ADVANCED_FACE('',(#23),#16,.T.);
#147=ADVANCED_FACE('',(#24),#15,.F.);
#148=ADVANCED_FACE('',(#25),#17,.T.);
#149=ADVANCED_FACE('',(#26),#141,.T.);
#150=ADVANCED_FACE('',(#27),#18,.T.);
#151=ADVANCED_FACE('',(#28),#142,.T.);
#152=ADVANCED_FACE('',(#29),#20,.T.);
#153=ADVANCED_FACE('',(#30),#143,.T.);
#154=CLOSED_SHELL('',(#144,#145,#146,#147,#148,#149,#150,#151,#152,#153));
#155=DERIVED_UNIT_ELEMENT(#157,1.);
#156=DERIVED_UNIT_ELEMENT(#296,-3.);
#157=(
MASS_UNIT()
NAMED_UNIT(*)
SI_UNIT(.KILO.,.GRAM.)
);
#158=DERIVED_UNIT((#155,#156));
#159=MEASURE_REPRESENTATION_ITEM('density measure',
POSITIVE_RATIO_MEASURE(7850.),#158);
#160=PROPERTY_DEFINITION_REPRESENTATION(#165,#162);
#161=PROPERTY_DEFINITION_REPRESENTATION(#166,#163);
#162=REPRESENTATION('material name',(#164),#291);
#163=REPRESENTATION('density',(#159),#291);
#164=DESCRIPTIVE_REPRESENTATION_ITEM('Steel','Steel');
#165=PROPERTY_DEFINITION('material property','material name',#304);
#166=PROPERTY_DEFINITION('material property','density of part',#304);
#167=AXIS2_PLACEMENT_3D('',#246,#191,#192);
#168=AXIS2_PLACEMENT_3D('',#247,#193,#194);
#169=AXIS2_PLACEMENT_3D('',#250,#195,#196);
#170=AXIS2_PLACEMENT_3D('',#251,#197,#198);
#171=AXIS2_PLACEMENT_3D('',#254,#200,#201);
#172=AXIS2_PLACEMENT_3D('',#255,#202,#203);
#173=AXIS2_PLACEMENT_3D('',#256,#204,#205);
#174=AXIS2_PLACEMENT_3D('',#258,#206,#207);
#175=AXIS2_PLACEMENT_3D('',#260,#209,#210);
#176=AXIS2_PLACEMENT_3D('',#263,#211,#212);
#177=AXIS2_PLACEMENT_3D('',#265,#213,#214);
#178=AXIS2_PLACEMENT_3D('',#267,#215,#216);
#179=AXIS2_PLACEMENT_3D('',#268,#217,#218);
#180=AXIS2_PLACEMENT_3D('',#269,#219,#220);
#181=AXIS2_PLACEMENT_3D('',#270,#221,#222);
#182=AXIS2_PLACEMENT_3D('',#272,#223,#224);
#183=AXIS2_PLACEMENT_3D('',#274,#226,#227);
#184=AXIS2_PLACEMENT_3D('',#276,#228,#229);
#185=AXIS2_PLACEMENT_3D('',#278,#231,#232);
#186=AXIS2_PLACEMENT_3D('',#280,#233,#234);
#187=AXIS2_PLACEMENT_3D('',#282,#236,#237);
#188=AXIS2_PLACEMENT_3D('',#284,#238,#239);
#189=AXIS2_PLACEMENT_3D('',#286,#241,#242);
#190=AXIS2_PLACEMENT_3D('',#287,#243,#244);
#191=DIRECTION('axis',(0.,0.,1.));
#192=DIRECTION('refdir',(1.,0.,0.));
#193=DIRECTION('center_axis',(1.,0.,0.));
#194=DIRECTION('ref_axis',(0.,-1.,0.));
#195=DIRECTION('center_axis',(-1.,0.,0.));
#196=DIRECTION('ref_axis',(0.,-1.,0.));
#197=DIRECTION('center_axis',(-1.,0.,0.));
#198=DIRECTION('ref_axis',(0.,-1.,0.));
#199=DIRECTION('',(-0.707106781186546,-0.707106781186549,-8.65956056235495E-17));
#200=DIRECTION('center_axis',(1.,0.,0.));
#201=DIRECTION('ref_axis',(0.,-1.,0.));
#202=DIRECTION('center_axis',(-1.,0.,0.));
#203=DIRECTION('ref_axis',(0.,0.,1.));
#204=DIRECTION('center_axis',(1.,0.,0.));
#205=DIRECTION('ref_axis',(0.,1.,0.));
#206=DIRECTION('center_axis',(1.,0.,0.));
#207=DIRECTION('ref_axis',(0.,0.,-1.));
#208=DIRECTION('',(-1.,0.,0.));
#209=DIRECTION('center_axis',(1.,0.,0.));
#210=DIRECTION('ref_axis',(0.,0.,-1.));
#211=DIRECTION('center_axis',(1.,0.,0.));
#212=DIRECTION('ref_axis',(0.,0.,-1.));
#213=DIRECTION('center_axis',(0.,-1.,-1.22464679914735E-16));
#214=DIRECTION('ref_axis',(0.,-1.22464679914735E-16,1.));
#215=DIRECTION('center_axis',(1.,0.,0.));
#216=DIRECTION('ref_axis',(0.,0.,-1.));
#217=DIRECTION('center_axis',(1.,0.,0.));
#218=DIRECTION('ref_axis',(0.,0.,-1.));
#219=DIRECTION('center_axis',(1.,0.,0.));
#220=DIRECTION('ref_axis',(0.,0.,-1.));
#221=DIRECTION('center_axis',(1.,0.,0.));
#222=DIRECTION('ref_axis',(0.,1.,0.));
#223=DIRECTION('center_axis',(1.,0.,0.));
#224=DIRECTION('ref_axis',(0.,0.,-1.));
#225=DIRECTION('',(-1.,0.,0.));
#226=DIRECTION('center_axis',(1.,0.,0.));
#227=DIRECTION('ref_axis',(0.,1.,0.));
#228=DIRECTION('center_axis',(1.,0.,0.));
#229=DIRECTION('ref_axis',(0.,0.,-1.));
#230=DIRECTION('',(-0.500000000000005,0.866025403784436,1.0605752387249E-16));
#231=DIRECTION('center_axis',(1.,0.,0.));
#232=DIRECTION('ref_axis',(0.,1.,0.));
#233=DIRECTION('center_axis',(1.,0.,0.));
#234=DIRECTION('ref_axis',(0.,0.,-1.));
#235=DIRECTION('',(-1.,0.,0.));
#236=DIRECTION('center_axis',(-1.,0.,0.));
#237=DIRECTION('ref_axis',(0.,1.,0.));
#238=DIRECTION('center_axis',(1.,0.,0.));
#239=DIRECTION('ref_axis',(0.,0.,-1.));
#240=DIRECTION('',(-0.500000000000011,-0.866025403784432,-1.0605752387249E-16));
#241=DIRECTION('center_axis',(1.,0.,0.));
#242=DIRECTION('ref_axis',(0.,0.,-1.));
#243=DIRECTION('center_axis',(-1.,0.,0.));
#244=DIRECTION('ref_axis',(0.,1.,0.));
#245=DIRECTION('',(-0.866025403784434,-0.500000000000008,-6.12323399573687E-17));
#246=CARTESIAN_POINT('',(0.,0.,0.));
#247=CARTESIAN_POINT('Origin',(0.00984251968503933,0.,0.));
#248=CARTESIAN_POINT('',(0.0196850393700787,0.125,-1.53080849893419E-17));
#249=CARTESIAN_POINT('',(0.0196850393700787,-0.125,-1.53080849893419E-17));
#250=CARTESIAN_POINT('Origin',(0.0196850393700787,0.,0.));
#251=CARTESIAN_POINT('Origin',(0.0196850393700787,0.,0.));
#252=CARTESIAN_POINT('',(0.,0.105314960629921,1.28973629437763E-17));
#253=CARTESIAN_POINT('',(0.00984251968503933,0.115157480314961,1.41027239665591E-17));
#254=CARTESIAN_POINT('Origin',(0.,0.,0.));
#255=CARTESIAN_POINT('Origin',(0.,0.125,0.));
#256=CARTESIAN_POINT('Origin',(0.9369048468389,0.,0.));
#257=CARTESIAN_POINT('',(1.8738096936778,-0.125,-1.53080849893419E-17));
#258=CARTESIAN_POINT('Origin',(1.8738096936778,0.,0.));
#259=CARTESIAN_POINT('',(0.9369048468389,-0.125,-1.53080849893419E-17));
#260=CARTESIAN_POINT('Origin',(2.02037945237028,0.,0.));
#261=CARTESIAN_POINT('',(1.98100937363012,-0.0631082359224853,-7.72852991223076E-18));
#262=CARTESIAN_POINT('',(1.98100937363012,-7.72852991223076E-18,0.0631082359224853));
#263=CARTESIAN_POINT('Origin',(1.98100937363012,0.,0.));
#264=CARTESIAN_POINT('',(2.02037945237028,-6.43662786166029E-18,0.0525590551181102));
#265=CARTESIAN_POINT('Origin',(2.02037945237028,-1.6079516043923E-17,0.131299212598426));
#266=CARTESIAN_POINT('',(2.02037945237028,-0.0525590551181102,-6.4366278616603E-18));
#267=CARTESIAN_POINT('Origin',(2.02037945237028,0.,0.));
#268=CARTESIAN_POINT('Origin',(2.02037945237028,0.,0.));
#269=CARTESIAN_POINT('Origin',(1.98100937363012,0.,0.));
#270=CARTESIAN_POINT('Origin',(2.23778578500406,0.,0.));
#271=CARTESIAN_POINT('',(2.45519211763785,-0.0525590551181102,-6.4366278616603E-18));
#272=CARTESIAN_POINT('Origin',(2.45519211763785,0.,0.));
#273=CARTESIAN_POINT('',(2.23778578500406,-0.0525590551181102,-6.4366278616603E-18));
#274=CARTESIAN_POINT('Origin',(2.46600038744098,0.,0.));
#275=CARTESIAN_POINT('',(2.47680865724412,-0.09,-1.10218211923262E-17));
#276=CARTESIAN_POINT('Origin',(2.47680865724412,0.,0.));
#277=CARTESIAN_POINT('',(2.46600038744098,-0.0712795275590551,-8.72922452699324E-18));
#278=CARTESIAN_POINT('Origin',(2.47759605881892,0.,0.));
#279=CARTESIAN_POINT('',(2.47838346039373,-0.09,-1.10218211923262E-17));
#280=CARTESIAN_POINT('Origin',(2.47838346039373,0.,0.));
#281=CARTESIAN_POINT('',(2.47759605881892,-0.09,-1.10218211923262E-17));
#282=CARTESIAN_POINT('Origin',(2.48919173019686,0.,0.));
#283=CARTESIAN_POINT('',(2.5,-0.0525590551181103,-6.43662786166031E-18));
#284=CARTESIAN_POINT('Origin',(2.5,0.,0.));
#285=CARTESIAN_POINT('',(2.48919173019686,-0.0712795275590551,-8.72922452699324E-18));
#286=CARTESIAN_POINT('Origin',(2.5,0.,0.));
#287=CARTESIAN_POINT('Origin',(1.92740953365396,0.,0.));
#288=CARTESIAN_POINT('',(1.92740953365396,-0.0940541179612426,-1.15183074507863E-17));
#289=UNCERTAINTY_MEASURE_WITH_UNIT(LENGTH_MEASURE(0.000393700787401575),
#294,'DISTANCE_ACCURACY_VALUE',
'Maximum model space distance between geometric entities at asserted c
onnectivities');
#290=UNCERTAINTY_MEASURE_WITH_UNIT(LENGTH_MEASURE(0.000393700787401575),
#294,'DISTANCE_ACCURACY_VALUE',
'Maximum model space distance between geometric entities at asserted c
onnectivities');
#291=(
GEOMETRIC_REPRESENTATION_CONTEXT(3)
GLOBAL_UNCERTAINTY_ASSIGNED_CONTEXT((#289))
GLOBAL_UNIT_ASSIGNED_CONTEXT((#294,#298,#299))
REPRESENTATION_CONTEXT('','3D')
);
#292=(
GEOMETRIC_REPRESENTATION_CONTEXT(3)
GLOBAL_UNCERTAINTY_ASSIGNED_CONTEXT((#290))
GLOBAL_UNIT_ASSIGNED_CONTEXT((#294,#298,#299))
REPRESENTATION_CONTEXT('','3D')
);
#293=DIMENSIONAL_EXPONENTS(1.,0.,0.,0.,0.,0.,0.);
#294=(
CONVERSION_BASED_UNIT('inch',#297)
LENGTH_UNIT()
NAMED_UNIT(#293)
);
#295=(
LENGTH_UNIT()
NAMED_UNIT(*)
SI_UNIT(.MILLI.,.METRE.)
);
#296=(
LENGTH_UNIT()
NAMED_UNIT(*)
SI_UNIT($,.METRE.)
);
#297=LENGTH_MEASURE_WITH_UNIT(LENGTH_MEASURE(25.4),#295);
#298=(
NAMED_UNIT(*)
PLANE_ANGLE_UNIT()
SI_UNIT($,.RADIAN.)
);
#299=(
NAMED_UNIT(*)
SI_UNIT($,.STERADIAN.)
SOLID_ANGLE_UNIT()
);
#300=SHAPE_DEFINITION_REPRESENTATION(#301,#302);
#301=PRODUCT_DEFINITION_SHAPE('',$,#304);
#302=SHAPE_REPRESENTATION('',(#167),#291);
#303=PRODUCT_DEFINITION_CONTEXT('part definition',#308,'design');
#304=PRODUCT_DEFINITION('1310-.180-1-BR','1310-.180-1-BR v3',#305,#303);
#305=PRODUCT_DEFINITION_FORMATION('',$,#310);
#306=PRODUCT_RELATED_PRODUCT_CATEGORY('1310-.180-1-BR v3',
'1310-.180-1-BR v3',(#310));
#307=APPLICATION_PROTOCOL_DEFINITION('international standard',
'automotive_design',2009,#308);
#308=APPLICATION_CONTEXT(
'Core Data for Automotive Mechanical Design Process');
#309=PRODUCT_CONTEXT('part definition',#308,'mechanical');
#310=PRODUCT('1310-.180-1-BR','1310-.180-1-BR v3',$,(#309));
#311=PRESENTATION_STYLE_ASSIGNMENT((#312));
#312=SURFACE_STYLE_USAGE(.BOTH.,#313);
#313=SURFACE_SIDE_STYLE('',(#314));
#314=SURFACE_STYLE_FILL_AREA(#315);
#315=FILL_AREA_STYLE('Steel - Satin',(#316));
#316=FILL_AREA_STYLE_COLOUR('Steel - Satin',#317);
#317=COLOUR_RGB('Steel - Satin',0.627450980392157,0.627450980392157,0.627450980392157);
ENDSEC;
END-ISO-10303-21;
