ISO-10303-21;
HEADER;
/* Generated by software containing ST-Developer
 * from STEP Tools, Inc. (www.steptools.com) 
 */

FILE_DESCRIPTION(
/* description */ (''),
/* implementation_level */ '2;1');

FILE_NAME(
/* name */ 'ER11-TA6-40.step',
/* time_stamp */ '2025-12-11T15:49:32-06:00',
/* author */ (''),
/* organization */ (''),
/* preprocessor_version */ 'ST-DEVELOPER v20.1',
/* originating_system */ 'Autodesk Translation Framework v14.21.0.0',
/* authorisation */ '');

FILE_SCHEMA (('AUTOMOTIVE_DESIGN { 1 0 10303 214 3 1 1 }'));
ENDSEC;

DATA;
#10=MECHANICAL_DESIGN_GEOMETRIC_PRESENTATION_REPRESENTATION('',(#151,#152,
#153,#154,#155,#156,#157,#158,#159,#160,#161,#162,#163),#318);
#11=SHAPE_REPRESENTATION_RELATIONSHIP('SRR','None',#328,#12);
#12=ADVANCED_BREP_SHAPE_REPRESENTATION('',(#13),#317);
#13=MANIFOLD_SOLID_BREP('Body1',#176);
#14=FACE_BOUND('',#45,.T.);
#15=FACE_BOUND('',#48,.T.);
#16=FACE_BOUND('',#52,.T.);
#17=PLANE('',#196);
#18=PLANE('',#197);
#19=PLANE('',#203);
#20=PLANE('',#207);
#21=PLANE('',#213);
#22=CYLINDRICAL_SURFACE('',#194,0.118110236220472);
#23=CYLINDRICAL_SURFACE('',#201,0.216535433070866);
#24=CYLINDRICAL_SURFACE('',#205,0.1855);
#25=CYLINDRICAL_SURFACE('',#209,0.216535433070866);
#26=FACE_OUTER_BOUND('',#38,.T.);
#27=FACE_OUTER_BOUND('',#39,.T.);
#28=FACE_OUTER_BOUND('',#40,.T.);
#29=FACE_OUTER_BOUND('',#41,.T.);
#30=FACE_OUTER_BOUND('',#42,.T.);
#31=FACE_OUTER_BOUND('',#43,.T.);
#32=FACE_OUTER_BOUND('',#44,.T.);
#33=FACE_OUTER_BOUND('',#46,.T.);
#34=FACE_OUTER_BOUND('',#47,.T.);
#35=FACE_OUTER_BOUND('',#49,.T.);
#36=FACE_OUTER_BOUND('',#50,.T.);
#37=FACE_OUTER_BOUND('',#51,.T.);
#38=EDGE_LOOP('',(#110,#111,#112,#113,#114));
#39=EDGE_LOOP('',(#115,#116,#117,#118,#119));
#40=EDGE_LOOP('',(#120));
#41=EDGE_LOOP('',(#121));
#42=EDGE_LOOP('',(#122,#123,#124,#125));
#43=EDGE_LOOP('',(#126,#127,#128,#129));
#44=EDGE_LOOP('',(#130));
#45=EDGE_LOOP('',(#131));
#46=EDGE_LOOP('',(#132,#133,#134,#135));
#47=EDGE_LOOP('',(#136));
#48=EDGE_LOOP('',(#137));
#49=EDGE_LOOP('',(#138,#139,#140,#141));
#50=EDGE_LOOP('',(#142,#143,#144,#145));
#51=EDGE_LOOP('',(#146));
#52=EDGE_LOOP('',(#147));
#53=LINE('',#276,#60);
#54=LINE('',#282,#61);
#55=LINE('',#291,#62);
#56=LINE('',#295,#63);
#57=LINE('',#302,#64);
#58=LINE('',#309,#65);
#59=LINE('',#313,#66);
#60=VECTOR('',#220,0.113110236220473);
#61=VECTOR('',#227,0.118110236220472);
#62=VECTOR('',#240,0.18505428609753);
#63=VECTOR('',#245,0.216535433070866);
#64=VECTOR('',#254,0.1855);
#65=VECTOR('',#263,0.216535433070866);
#66=VECTOR('',#268,0.193267716535433);
#67=CIRCLE('',#191,0.108110236220473);
#68=CIRCLE('',#192,0.118110236220472);
#69=CIRCLE('',#193,0.118110236220472);
#70=CIRCLE('',#195,0.118110236220472);
#71=CIRCLE('',#198,0.153573139124194);
#72=CIRCLE('',#200,0.216535433070866);
#73=CIRCLE('',#202,0.216535433070866);
#74=CIRCLE('',#204,0.1855);
#75=CIRCLE('',#206,0.1855);
#76=CIRCLE('',#208,0.216535433070866);
#77=CIRCLE('',#210,0.216535433070866);
#78=CIRCLE('',#212,0.17);
#79=VERTEX_POINT('',#273);
#80=VERTEX_POINT('',#275);
#81=VERTEX_POINT('',#277);
#82=VERTEX_POINT('',#281);
#83=VERTEX_POINT('',#286);
#84=VERTEX_POINT('',#289);
#85=VERTEX_POINT('',#293);
#86=VERTEX_POINT('',#297);
#87=VERTEX_POINT('',#300);
#88=VERTEX_POINT('',#304);
#89=VERTEX_POINT('',#307);
#90=VERTEX_POINT('',#311);
#91=EDGE_CURVE('',#79,#79,#67,.T.);
#92=EDGE_CURVE('',#79,#80,#53,.T.);
#93=EDGE_CURVE('',#80,#81,#68,.T.);
#94=EDGE_CURVE('',#81,#80,#69,.T.);
#95=EDGE_CURVE('',#81,#82,#54,.T.);
#96=EDGE_CURVE('',#82,#82,#70,.T.);
#97=EDGE_CURVE('',#83,#83,#71,.T.);
#98=EDGE_CURVE('',#84,#84,#72,.T.);
#99=EDGE_CURVE('',#84,#83,#55,.T.);
#100=EDGE_CURVE('',#85,#85,#73,.T.);
#101=EDGE_CURVE('',#85,#84,#56,.T.);
#102=EDGE_CURVE('',#86,#86,#74,.T.);
#103=EDGE_CURVE('',#87,#87,#75,.T.);
#104=EDGE_CURVE('',#87,#86,#57,.T.);
#105=EDGE_CURVE('',#88,#88,#76,.T.);
#106=EDGE_CURVE('',#89,#89,#77,.T.);
#107=EDGE_CURVE('',#89,#88,#58,.T.);
#108=EDGE_CURVE('',#90,#90,#78,.T.);
#109=EDGE_CURVE('',#90,#89,#59,.T.);
#110=ORIENTED_EDGE('',*,*,#91,.T.);
#111=ORIENTED_EDGE('',*,*,#92,.T.);
#112=ORIENTED_EDGE('',*,*,#93,.T.);
#113=ORIENTED_EDGE('',*,*,#94,.T.);
#114=ORIENTED_EDGE('',*,*,#92,.F.);
#115=ORIENTED_EDGE('',*,*,#93,.F.);
#116=ORIENTED_EDGE('',*,*,#94,.F.);
#117=ORIENTED_EDGE('',*,*,#95,.T.);
#118=ORIENTED_EDGE('',*,*,#96,.T.);
#119=ORIENTED_EDGE('',*,*,#95,.F.);
#120=ORIENTED_EDGE('',*,*,#91,.F.);
#121=ORIENTED_EDGE('',*,*,#97,.F.);
#122=ORIENTED_EDGE('',*,*,#98,.F.);
#123=ORIENTED_EDGE('',*,*,#99,.T.);
#124=ORIENTED_EDGE('',*,*,#97,.T.);
#125=ORIENTED_EDGE('',*,*,#99,.F.);
#126=ORIENTED_EDGE('',*,*,#100,.F.);
#127=ORIENTED_EDGE('',*,*,#101,.T.);
#128=ORIENTED_EDGE('',*,*,#98,.T.);
#129=ORIENTED_EDGE('',*,*,#101,.F.);
#130=ORIENTED_EDGE('',*,*,#100,.T.);
#131=ORIENTED_EDGE('',*,*,#102,.F.);
#132=ORIENTED_EDGE('',*,*,#103,.F.);
#133=ORIENTED_EDGE('',*,*,#104,.T.);
#134=ORIENTED_EDGE('',*,*,#102,.T.);
#135=ORIENTED_EDGE('',*,*,#104,.F.);
#136=ORIENTED_EDGE('',*,*,#105,.F.);
#137=ORIENTED_EDGE('',*,*,#103,.T.);
#138=ORIENTED_EDGE('',*,*,#106,.F.);
#139=ORIENTED_EDGE('',*,*,#107,.T.);
#140=ORIENTED_EDGE('',*,*,#105,.T.);
#141=ORIENTED_EDGE('',*,*,#107,.F.);
#142=ORIENTED_EDGE('',*,*,#108,.F.);
#143=ORIENTED_EDGE('',*,*,#109,.T.);
#144=ORIENTED_EDGE('',*,*,#106,.T.);
#145=ORIENTED_EDGE('',*,*,#109,.F.);
#146=ORIENTED_EDGE('',*,*,#108,.T.);
#147=ORIENTED_EDGE('',*,*,#96,.F.);
#148=CONICAL_SURFACE('',#190,0.113110236220473,0.785398163397448);
#149=CONICAL_SURFACE('',#199,0.18505428609753,0.139626340159547);
#150=CONICAL_SURFACE('',#211,0.193267716535433,0.523598775598298);
#151=STYLED_ITEM('',(#338),#164);
#152=STYLED_ITEM('',(#339),#165);
#153=STYLED_ITEM('',(#338),#166);
#154=STYLED_ITEM('',(#338),#167);
#155=STYLED_ITEM('',(#339),#168);
#156=STYLED_ITEM('',(#339),#169);
#157=STYLED_ITEM('',(#338),#170);
#158=STYLED_ITEM('',(#338),#171);
#159=STYLED_ITEM('',(#338),#172);
#160=STYLED_ITEM('',(#339),#173);
#161=STYLED_ITEM('',(#339),#174);
#162=STYLED_ITEM('',(#338),#175);
#163=STYLED_ITEM('',(#337),#13);
#164=ADVANCED_FACE('',(#26),#148,.T.);
#165=ADVANCED_FACE('',(#27),#22,.T.);
#166=ADVANCED_FACE('',(#28),#17,.T.);
#167=ADVANCED_FACE('',(#29),#18,.T.);
#168=ADVANCED_FACE('',(#30),#149,.T.);
#169=ADVANCED_FACE('',(#31),#23,.T.);
#170=ADVANCED_FACE('',(#32,#14),#19,.T.);
#171=ADVANCED_FACE('',(#33),#24,.T.);
#172=ADVANCED_FACE('',(#34,#15),#20,.T.);
#173=ADVANCED_FACE('',(#35),#25,.T.);
#174=ADVANCED_FACE('',(#36),#150,.T.);
#175=ADVANCED_FACE('',(#37,#16),#21,.T.);
#176=CLOSED_SHELL('',(#164,#165,#166,#167,#168,#169,#170,#171,#172,#173,
#174,#175));
#177=DERIVED_UNIT_ELEMENT(#179,1.);
#178=DERIVED_UNIT_ELEMENT(#322,-3.);
#179=(
MASS_UNIT()
NAMED_UNIT(*)
SI_UNIT(.KILO.,.GRAM.)
);
#180=DERIVED_UNIT((#177,#178));
#181=MEASURE_REPRESENTATION_ITEM('density measure',
POSITIVE_RATIO_MEASURE(7850.),#180);
#182=PROPERTY_DEFINITION_REPRESENTATION(#187,#184);
#183=PROPERTY_DEFINITION_REPRESENTATION(#188,#185);
#184=REPRESENTATION('material name',(#186),#317);
#185=REPRESENTATION('density',(#181),#317);
#186=DESCRIPTIVE_REPRESENTATION_ITEM('Steel','Steel');
#187=PROPERTY_DEFINITION('material property','material name',#330);
#188=PROPERTY_DEFINITION('material property','density of part',#330);
#189=AXIS2_PLACEMENT_3D('',#271,#214,#215);
#190=AXIS2_PLACEMENT_3D('',#272,#216,#217);
#191=AXIS2_PLACEMENT_3D('',#274,#218,#219);
#192=AXIS2_PLACEMENT_3D('',#278,#221,#222);
#193=AXIS2_PLACEMENT_3D('',#279,#223,#224);
#194=AXIS2_PLACEMENT_3D('',#280,#225,#226);
#195=AXIS2_PLACEMENT_3D('',#283,#228,#229);
#196=AXIS2_PLACEMENT_3D('',#284,#230,#231);
#197=AXIS2_PLACEMENT_3D('',#285,#232,#233);
#198=AXIS2_PLACEMENT_3D('',#287,#234,#235);
#199=AXIS2_PLACEMENT_3D('',#288,#236,#237);
#200=AXIS2_PLACEMENT_3D('',#290,#238,#239);
#201=AXIS2_PLACEMENT_3D('',#292,#241,#242);
#202=AXIS2_PLACEMENT_3D('',#294,#243,#244);
#203=AXIS2_PLACEMENT_3D('',#296,#246,#247);
#204=AXIS2_PLACEMENT_3D('',#298,#248,#249);
#205=AXIS2_PLACEMENT_3D('',#299,#250,#251);
#206=AXIS2_PLACEMENT_3D('',#301,#252,#253);
#207=AXIS2_PLACEMENT_3D('',#303,#255,#256);
#208=AXIS2_PLACEMENT_3D('',#305,#257,#258);
#209=AXIS2_PLACEMENT_3D('',#306,#259,#260);
#210=AXIS2_PLACEMENT_3D('',#308,#261,#262);
#211=AXIS2_PLACEMENT_3D('',#310,#264,#265);
#212=AXIS2_PLACEMENT_3D('',#312,#266,#267);
#213=AXIS2_PLACEMENT_3D('',#314,#269,#270);
#214=DIRECTION('axis',(0.,0.,1.));
#215=DIRECTION('refdir',(1.,0.,0.));
#216=DIRECTION('center_axis',(0.,6.12323399573668E-17,1.));
#217=DIRECTION('ref_axis',(0.,-1.,2.92627924683139E-17));
#218=DIRECTION('center_axis',(0.,6.12323399573677E-17,1.));
#219=DIRECTION('ref_axis',(0.,-1.,6.12323399573677E-17));
#220=DIRECTION('',(8.65956056235493E-17,0.707106781186548,0.707106781186548));
#221=DIRECTION('center_axis',(0.,-6.12323399573677E-17,-1.));
#222=DIRECTION('ref_axis',(0.,-1.,0.));
#223=DIRECTION('center_axis',(0.,-6.12323399573677E-17,-1.));
#224=DIRECTION('ref_axis',(0.,-1.,0.));
#225=DIRECTION('center_axis',(0.,-6.12323399573677E-17,-1.));
#226=DIRECTION('ref_axis',(0.,1.,0.));
#227=DIRECTION('',(0.,6.12323399573677E-17,1.));
#228=DIRECTION('center_axis',(0.,-6.12323399573677E-17,-1.));
#229=DIRECTION('ref_axis',(1.,0.,0.));
#230=DIRECTION('center_axis',(0.,-6.12323399573677E-17,-1.));
#231=DIRECTION('ref_axis',(-1.,0.,0.));
#232=DIRECTION('center_axis',(0.,6.12323399573677E-17,1.));
#233=DIRECTION('ref_axis',(1.,0.,0.));
#234=DIRECTION('center_axis',(0.,-6.12323399573677E-17,-1.));
#235=DIRECTION('ref_axis',(1.,0.,0.));
#236=DIRECTION('center_axis',(0.,-6.12323399573677E-17,-1.));
#237=DIRECTION('ref_axis',(0.,1.,0.));
#238=DIRECTION('center_axis',(0.,-6.12323399573677E-17,-1.));
#239=DIRECTION('ref_axis',(1.,0.,0.));
#240=DIRECTION('',(1.70437892618156E-17,0.139173100960066,0.99026806874157));
#241=DIRECTION('center_axis',(0.,-6.12323399573677E-17,-1.));
#242=DIRECTION('ref_axis',(0.,1.,0.));
#243=DIRECTION('center_axis',(0.,-6.12323399573677E-17,-1.));
#244=DIRECTION('ref_axis',(1.,0.,0.));
#245=DIRECTION('',(0.,6.12323399573677E-17,1.));
#246=DIRECTION('center_axis',(0.,-6.12323399573677E-17,-1.));
#247=DIRECTION('ref_axis',(-1.,0.,0.));
#248=DIRECTION('center_axis',(0.,-6.12323399573677E-17,-1.));
#249=DIRECTION('ref_axis',(1.,0.,0.));
#250=DIRECTION('center_axis',(0.,-6.12323399573677E-17,-1.));
#251=DIRECTION('ref_axis',(0.,1.,0.));
#252=DIRECTION('center_axis',(0.,-6.12323399573677E-17,-1.));
#253=DIRECTION('ref_axis',(1.,0.,0.));
#254=DIRECTION('',(0.,6.12323399573677E-17,1.));
#255=DIRECTION('center_axis',(0.,6.12323399573677E-17,1.));
#256=DIRECTION('ref_axis',(1.,0.,0.));
#257=DIRECTION('center_axis',(0.,-6.12323399573677E-17,-1.));
#258=DIRECTION('ref_axis',(1.,0.,0.));
#259=DIRECTION('center_axis',(0.,-6.12323399573677E-17,-1.));
#260=DIRECTION('ref_axis',(0.,1.,0.));
#261=DIRECTION('center_axis',(0.,-6.12323399573677E-17,-1.));
#262=DIRECTION('ref_axis',(1.,0.,0.));
#263=DIRECTION('',(0.,6.12323399573677E-17,1.));
#264=DIRECTION('center_axis',(0.,6.12323399573677E-17,1.));
#265=DIRECTION('ref_axis',(0.,1.,0.));
#266=DIRECTION('center_axis',(0.,-6.12323399573677E-17,-1.));
#267=DIRECTION('ref_axis',(1.,0.,0.));
#268=DIRECTION('',(-6.12323399573676E-17,-0.499999999999999,0.866025403784439));
#269=DIRECTION('center_axis',(0.,-6.12323399573677E-17,-1.));
#270=DIRECTION('ref_axis',(-1.,0.,0.));
#271=CARTESIAN_POINT('',(0.,0.,0.));
#272=CARTESIAN_POINT('Origin',(0.,-9.61227201228394E-17,-1.5698031496063));
#273=CARTESIAN_POINT('',(-1.32396854742466E-17,0.108110236220472,-1.5748031496063));
#274=CARTESIAN_POINT('Origin',(0.,-9.64288818226262E-17,-1.5748031496063));
#275=CARTESIAN_POINT('',(1.44643322733939E-17,0.118110236220472,-1.5648031496063));
#276=CARTESIAN_POINT('',(1.38520088738203E-17,0.113110236220472,-1.5698031496063));
#277=CARTESIAN_POINT('',(-1.44643322733939E-17,-0.118110236220473,-1.5648031496063));
#278=CARTESIAN_POINT('Origin',(0.,-9.58165584230525E-17,-1.5648031496063));
#279=CARTESIAN_POINT('Origin',(0.,-9.58165584230525E-17,-1.5648031496063));
#280=CARTESIAN_POINT('Origin',(0.,-4.82144409113131E-17,-0.787401574803149));
#281=CARTESIAN_POINT('',(-1.44643322733939E-17,-0.118110236220472,0.));
#282=CARTESIAN_POINT('',(-1.44643322733939E-17,-0.118110236220473,-0.787401574803149));
#283=CARTESIAN_POINT('Origin',(0.,-4.40989441223697E-33,7.23216613669697E-18));
#284=CARTESIAN_POINT('Origin',(0.,0.,-1.5748031496063));
#285=CARTESIAN_POINT('Origin',(0.,0.153573139124195,0.715));
#286=CARTESIAN_POINT('',(-1.88072853263456E-17,-0.153573139124194,0.715));
#287=CARTESIAN_POINT('Origin',(0.,4.37811230695179E-17,0.715));
#288=CARTESIAN_POINT('Origin',(0.,3.00650789190675E-17,0.491));
#289=CARTESIAN_POINT('',(-2.65179425012222E-17,-0.216535433070866,0.267));
#290=CARTESIAN_POINT('Origin',(0.,1.63490347686172E-17,0.267));
#291=CARTESIAN_POINT('',(-2.26626139137839E-17,-0.18505428609753,0.491));
#292=CARTESIAN_POINT('Origin',(0.,1.37527835544248E-17,0.2246));
#293=CARTESIAN_POINT('',(-2.65179425012222E-17,-0.216535433070866,0.1822));
#294=CARTESIAN_POINT('Origin',(0.,1.11565323402324E-17,0.1822));
#295=CARTESIAN_POINT('',(-2.65179425012222E-17,-0.216535433070866,0.2246));
#296=CARTESIAN_POINT('Origin',(0.,0.1855,0.1822));
#297=CARTESIAN_POINT('',(-2.27171981241834E-17,-0.1855,0.1822));
#298=CARTESIAN_POINT('Origin',(0.,1.11565323402324E-17,0.1822));
#299=CARTESIAN_POINT('Origin',(0.,8.6276366999931E-18,0.1409));
#300=CARTESIAN_POINT('',(-2.27171981241834E-17,-0.1855,0.0996));
#301=CARTESIAN_POINT('Origin',(0.,6.09874105975382E-18,0.0996));
#302=CARTESIAN_POINT('',(-2.27171981241834E-17,-0.1855,0.1409));
#303=CARTESIAN_POINT('Origin',(0.,0.216535433070866,0.0996));
#304=CARTESIAN_POINT('',(-2.65179425012222E-17,-0.216535433070866,0.0996));
#305=CARTESIAN_POINT('Origin',(0.,6.09874105975382E-18,0.0996));
#306=CARTESIAN_POINT('Origin',(0.,5.51708693179195E-18,0.0901008672154807));
#307=CARTESIAN_POINT('',(-2.65179425012222E-17,-0.216535433070866,0.0806017344309614));
#308=CARTESIAN_POINT('Origin',(0.,4.93543280383009E-18,0.0806017344309614));
#309=CARTESIAN_POINT('',(-2.65179425012222E-17,-0.216535433070866,0.0901008672154807));
#310=CARTESIAN_POINT('Origin',(0.,2.46771640191504E-18,0.0403008672154807));
#311=CARTESIAN_POINT('',(-2.0818995585505E-17,-0.17,-5.46369598732853E-18));
#312=CARTESIAN_POINT('Origin',(0.,-4.21533896011608E-33,1.04094977927525E-17));
#313=CARTESIAN_POINT('',(-2.36684690433636E-17,-0.193267716535433,0.0403008672154807));
#314=CARTESIAN_POINT('Origin',(0.,0.118110236220472,0.));
#315=UNCERTAINTY_MEASURE_WITH_UNIT(LENGTH_MEASURE(0.000393700787401575),
#320,'DISTANCE_ACCURACY_VALUE',
'Maximum model space distance between geometric entities at asserted c
onnectivities');
#316=UNCERTAINTY_MEASURE_WITH_UNIT(LENGTH_MEASURE(0.000393700787401575),
#320,'DISTANCE_ACCURACY_VALUE',
'Maximum model space distance between geometric entities at asserted c
onnectivities');
#317=(
GEOMETRIC_REPRESENTATION_CONTEXT(3)
GLOBAL_UNCERTAINTY_ASSIGNED_CONTEXT((#315))
GLOBAL_UNIT_ASSIGNED_CONTEXT((#320,#324,#325))
REPRESENTATION_CONTEXT('','3D')
);
#318=(
GEOMETRIC_REPRESENTATION_CONTEXT(3)
GLOBAL_UNCERTAINTY_ASSIGNED_CONTEXT((#316))
GLOBAL_UNIT_ASSIGNED_CONTEXT((#320,#324,#325))
REPRESENTATION_CONTEXT('','3D')
);
#319=DIMENSIONAL_EXPONENTS(1.,0.,0.,0.,0.,0.,0.);
#320=(
CONVERSION_BASED_UNIT('inch',#323)
LENGTH_UNIT()
NAMED_UNIT(#319)
);
#321=(
LENGTH_UNIT()
NAMED_UNIT(*)
SI_UNIT(.MILLI.,.METRE.)
);
#322=(
LENGTH_UNIT()
NAMED_UNIT(*)
SI_UNIT($,.METRE.)
);
#323=LENGTH_MEASURE_WITH_UNIT(LENGTH_MEASURE(25.4),#321);
#324=(
NAMED_UNIT(*)
PLANE_ANGLE_UNIT()
SI_UNIT($,.RADIAN.)
);
#325=(
NAMED_UNIT(*)
SI_UNIT($,.STERADIAN.)
SOLID_ANGLE_UNIT()
);
#326=SHAPE_DEFINITION_REPRESENTATION(#327,#328);
#327=PRODUCT_DEFINITION_SHAPE('',$,#330);
#328=SHAPE_REPRESENTATION('',(#189),#317);
#329=PRODUCT_DEFINITION_CONTEXT('part definition',#334,'design');
#330=PRODUCT_DEFINITION('ER11-TA6-40','ER11-TA6-40 v3',#331,#329);
#331=PRODUCT_DEFINITION_FORMATION('',$,#336);
#332=PRODUCT_RELATED_PRODUCT_CATEGORY('ER11-TA6-40 v3','ER11-TA6-40 v3',
(#336));
#333=APPLICATION_PROTOCOL_DEFINITION('international standard',
'automotive_design',2009,#334);
#334=APPLICATION_CONTEXT(
'Core Data for Automotive Mechanical Design Process');
#335=PRODUCT_CONTEXT('part definition',#334,'mechanical');
#336=PRODUCT('ER11-TA6-40','ER11-TA6-40 v3',$,(#335));
#337=PRESENTATION_STYLE_ASSIGNMENT((#340));
#338=PRESENTATION_STYLE_ASSIGNMENT((#341));
#339=PRESENTATION_STYLE_ASSIGNMENT((#342));
#340=SURFACE_STYLE_USAGE(.BOTH.,#343);
#341=SURFACE_STYLE_USAGE(.BOTH.,#344);
#342=SURFACE_STYLE_USAGE(.BOTH.,#345);
#343=SURFACE_SIDE_STYLE('',(#346));
#344=SURFACE_SIDE_STYLE('',(#347));
#345=SURFACE_SIDE_STYLE('',(#348));
#346=SURFACE_STYLE_FILL_AREA(#349);
#347=SURFACE_STYLE_FILL_AREA(#350);
#348=SURFACE_STYLE_FILL_AREA(#351);
#349=FILL_AREA_STYLE('Steel - Satin',(#352));
#350=FILL_AREA_STYLE('Opaque(44,44,44)',(#353));
#351=FILL_AREA_STYLE('Opaque(255,255,255)',(#354));
#352=FILL_AREA_STYLE_COLOUR('Steel - Satin',#355);
#353=FILL_AREA_STYLE_COLOUR('Opaque(44,44,44)',#356);
#354=FILL_AREA_STYLE_COLOUR('Opaque(255,255,255)',#357);
#355=COLOUR_RGB('Steel - Satin',0.627450980392157,0.627450980392157,0.627450980392157);
#356=COLOUR_RGB('Opaque(44,44,44)',0.172549019607843,0.172549019607843,
0.172549019607843);
#357=COLOUR_RGB('Opaque(255,255,255)',1.,1.,1.);
ENDSEC;
END-ISO-10303-21;
