0
SECTION
2
HEADER
9
$INSUNITS
70
1
9
$ACADVER
1
AC1014
9
$HANDSEED
5
FFFF
0
ENDSEC
0
SECTION
2
TABLES
0
TABLE
2
VPORT
5
8
100
AcDbSymbolTable
0
ENDTAB
0
TABLE
2
LTYPE
5
5
100
AcDbSymbolTable
0
LTYPE
5
14
100
AcDbSymbolTableRecord
100
AcDbLinetypeTableRecord
2
BYBLOCK
70
0
0
LTYPE
5
15
100
AcDbSymbolTableRecord
100
AcDbLinetypeTableRecord
2
BYLAYER
70
0
0
LTYPE
5
16
100
AcDbSymbolTableRecord
100
AcDbLinetypeTableRecord
2
DASHED
70
0
3
Dashed __ __ __ __ __ __ __ __ __ __ __ __ __ _
72
65
73
2
40
0.75
49
0.5
74
0
49
-0.25
74
0
0
ENDTAB
0
TABLE
2
LAYER
5
2
100
AcDbSymbolTable
70
2
0
LAYER
5
50
100
AcDbSymbolTableRecord
100
AcDbLayerTableRecord
2
0
70
0
62
7
6
CONTINUOUS
0
ENDTAB
0
TABLE
2
STYLE
5
3
100
AcDbSymbolTable
70
1
0
STYLE
5
11
100
AcDbSymbolTableRecord
100
AcDbTextStyleTableRecord
2
STANDARD
70
0
0
ENDTAB
0
TABLE
2
VIEW
5
6
100
AcDbSymbolTable
70
0
0
ENDTAB
0
TABLE
2
UCS
5
7
100
AcDbSymbolTable
70
0
0
ENDTAB
0
TABLE
2
APPID
5
9
100
AcDbSymbolTable
70
2
0
APPID
5
12
100
AcDbSymbolTableRecord
100
AcDbRegAppTableRecord
2
ACAD
70
0
0
ENDTAB
0
TABLE
2
DIMSTYLE
5
A
100
AcDbSymbolTable
70
1
0
ENDTAB
0
TABLE
2
BLOCK_RECORD
5
1
100
AcDbSymbolTable
70
1
0
BLOCK_RECORD
5
1F
100
AcDbSymbolTableRecord
100
AcDbBlockTableRecord
2
*MODEL_SPACE
0
BLOCK_RECORD
5
1B
100
AcDbSymbolTableRecord
100
AcDbBlockTableRecord
2
*PAPER_SPACE
0
ENDTAB
0
ENDSEC
0
SECTION
2
BLOCKS
0
BLOCK
5
20
100
AcDbEntity
100
AcDbBlockBegin
2
*MODEL_SPACE
0
ENDBLK
5
21
100
AcDbEntity
100
AcDbBlockEnd
0
BLOCK
5
1C
100
AcDbEntity
100
AcDbBlockBegin
2
*PAPER_SPACE
0
ENDBLK
5
1D
100
AcDbEntity
100
AcDbBlockEnd
0
ENDSEC
0
SECTION
2
ENTITIES
0
LWPOLYLINE
5
100
100
AcDbEntity
8
0
100
AcDbPolyline
90
46
70
1
43
0.0
10
1.0629921259842601
20
1.20890748031496
10
1.0629921259842601
20
1.2004999999999999
10
1.11399212598426
20
1.1495
10
1.4889921259842605
20
1.1495
10
1.5061362109807428
20
1.1425027112705679
10
1.7179921259842601
20
0.93500000000000005
10
2.48899212598426
20
0.93500000000000005
10
2.48899212598426
20
-0.93500000000000005
10
1.7179921259842601
20
-0.93500000000000005
10
1.5061362109807428
20
-1.1425027112705679
10
1.4889921259842605
20
-1.1495
10
1.11399212598426
20
-1.1495
10
1.0629921259842601
20
-1.2004999999999999
10
1.0629921259842601
20
-1.20890748031496
42
-0.41421356237309503
10
1.0317421259842599
20
-1.24015748031496
10
0.86902848362941998
20
-1.2401574803149666
42
-0.2679491924310673
10
0.86469835661049266
20
-1.2376574803149643
10
0.75393348016321171
20
-1.0458070866141691
42
0.26794919243107151
10
0.74960335314429005
20
-1.04330708661417
10
0.56929428465099985
20
-1.04330708661417
42
0.26794919243105908
10
0.56496415763207697
20
-1.0458070866141682
10
0.45419928118479153
20
-1.2376574803149609
42
-0.26794919243107096
10
0.44986915416586992
20
-1.24015748031496
10
0.094365157480320108
20
-1.2401574803149598
10
0.078740157480320302
20
-1.2245324803149598
10
0.078740157480320302
20
-0.90624999999999989
42
0.41421356237309509
10
0.04749015748031999
20
-0.875
10
3.4967654318902565e-16
20
-0.87499999999999933
10
-2.5254191171949301
20
-0.50004273412640055
42
-0.37167219875171054
10
-2.5787401574803099
20
-0.43822043476316597
10
-2.5787401574803086
20
0.43822043476316597
42
-0.37167219875171054
10
-2.5254191171949301
20
0.50004273412639955
10
3.4967654318902565e-16
20
0.87499999999999933
10
0.04749015748031999
20
0.875
42
0.41421356237309503
10
0.078740157480320302
20
0.90624999999999989
10
0.078740157480320302
20
1.2245324803149598
10
0.094365157480320136
20
1.2401574803149598
10
0.44986915416586992
20
1.2401574803149578
42
-0.26794919243107096
10
0.45419928118478975
20
1.2376574803149598
10
0.56496415763207697
20
1.0458070866141682
42
0.26794919243105908
10
0.56929428465099985
20
1.04330708661417
10
0.74960335314429005
20
1.04330708661417
42
0.26794919243107151
10
0.75393348016321171
20
1.0458070866141691
10
0.86469835661049843
20
1.2376574803149609
42
-0.2679491924310673
10
0.86902848362941998
20
1.24015748031496
10
1.0317421259842599
20
1.24015748031496
42
-0.41421356237309503
0
LINE
5
101
100
AcDbEntity
8
0
100
AcDbLine
10
1.9130000000000005
20
-1.206
30
0
11
1.9130000000000005
21
-1.1935753736948227
31
0
0
LINE
5
102
100
AcDbEntity
8
0
100
AcDbLine
10
2.75
20
-1.206
30
0
11
2.75
21
-1.1935753736948227
31
0
0
SPLINE
5
103
100
AcDbEntity
8
0
100
AcDbSpline
70
0
71
3
72
28
73
24
74
0
42
0.000000001
43
0.0000000001
44
0.0000000001
40
-1.709849107732379
40
-1.709849107732379
40
-1.709849107732379
40
-1.709849107732379
40
-1.6966311421382565
40
-1.6966311421382565
40
-1.6966311421382565
40
-1.5804528597715279
40
-1.5804528597715279
40
-1.4367759687475077
40
-1.4367759687475077
40
-1.2930979013056032
40
-1.2930979013056032
40
-1.1494198338636987
40
-1.1494198338636987
40
-1.0057417664217942
40
-1.0057417664217942
40
-0.86206369897988977
40
-0.86206369897988977
40
-0.71838680795586962
40
-0.71838680795586962
40
-0.60220852558914406
40
-0.60220852558914406
40
-0.60220852558914406
40
-0.58899055999650274
40
-0.58899055999650274
40
-0.58899055999650274
40
-0.58899055999650274
10
2.1815000000000007
20
-1.2059999999999997
30
0
10
2.1816332535569436
20
-1.2059834261745093
30
0
10
2.1817665097715597
20
-1.2059668737620182
30
0
10
2.1818997686487132
20
-1.2059503427672127
30
0
10
2.1830710372034363
20
-1.2058050448718127
30
0
10
2.1867377204599894
20
-1.2053440543021672
30
0
10
2.2005863679660029
20
-1.2037510224764174
30
0
10
2.2121272254281537
20
-1.2025016298618774
30
0
10
2.2387408491708256
20
-1.2001518935938726
30
0
10
2.2555948608954268
20
-1.1988982564419206
30
0
10
2.2925458997105013
20
-1.1971269197351129
30
0
10
2.3126446105719287
20
-1.1966352827825191
30
0
10
2.350355389428072
20
-1.1966352827825191
30
0
10
2.370454100289499
20
-1.1971269197351129
30
0
10
2.4074051391045739
20
-1.1988982564419206
30
0
10
2.4242591508291746
20
-1.2001518935938729
30
0
10
2.4508727745718466
20
-1.2025016298618776
30
0
10
2.4624136320339973
20
-1.2037510224764176
30
0
10
2.4762622795400109
20
-1.2053440543021674
30
0
10
2.4799289627965648
20
-1.2058050448718127
30
0
10
2.4811002313512875
20
-1.2059503427672127
30
0
10
2.4812334902284259
20
-1.2059668737620162
30
0
10
2.4813667464430713
20
-1.205983426174511
30
0
10
2.4815
20
-1.2059999999999997
30
0
0
LINE
5
104
100
AcDbEntity
8
0
100
AcDbLine
10
1.9130000000000005
20
-0.74632153078232832
30
0
11
1.9130000000000005
21
-0.44725384291250819
31
0
0
LINE
5
105
100
AcDbEntity
8
0
100
AcDbLine
10
1.9130000000000005
20
0.44725384291249082
30
0
11
1.9130000000000005
21
0.74632153078231345
31
0
0
LINE
5
106
100
AcDbEntity
8
0
100
AcDbLine
10
3
20
-1.1000000000000001
30
0
11
3
21
1.1000000000000001
31
0
0
LINE
5
107
100
AcDbEntity
8
0
100
AcDbLine
10
2.75
20
-1.1000000000000001
30
0
11
2.75
21
-1.1935753736948227
31
0
0
LINE
5
108
100
AcDbEntity
8
0
100
AcDbLine
10
2.75
20
1.19357537369482
30
0
11
2.75
21
1.1000000000000001
31
0
0
LINE
5
109
100
AcDbEntity
8
0
100
AcDbLine
10
2.75
20
1.19357537369482
30
0
11
2.75
21
1.206
31
0
0
LINE
5
110
100
AcDbEntity
8
0
100
AcDbLine
10
1.9130000000000005
20
1.1935753736948203
30
0
11
1.9130000000000005
21
1.206
31
0
0
LINE
5
111
100
AcDbEntity
8
0
100
AcDbLine
10
1.9130000000000005
20
1.1935753736948203
30
0
11
1.9130000000000005
21
0.74632153078231345
31
0
0
LINE
5
112
100
AcDbEntity
8
0
100
AcDbLine
10
1.9130000000000005
20
0.44725384291249082
30
0
11
1.9130000000000005
21
-0.44725384291250819
31
0
0
LINE
5
113
100
AcDbEntity
8
0
100
AcDbLine
10
1.9130000000000005
20
-0.74632153078232832
30
0
11
1.9130000000000005
21
-1.1935753736948227
31
0
0
LINE
5
114
100
AcDbEntity
8
0
100
AcDbLine
10
1.9130000000000005
20
-1.206
30
0
11
2.1815000000000007
21
-1.2059999999999997
31
0
0
LINE
5
115
100
AcDbEntity
8
0
100
AcDbLine
10
2.4814999999999996
20
-1.2059999999999997
30
0
11
2.75
21
-1.206
31
0
0
LINE
5
116
100
AcDbEntity
8
0
100
AcDbLine
10
2.75
20
-1.1000000000000001
30
0
11
3
21
-1.1000000000000001
31
0
0
LINE
5
117
100
AcDbEntity
8
0
100
AcDbLine
10
2.75
20
1.1000000000000001
30
0
11
3
21
1.1000000000000001
31
0
0
LINE
5
118
100
AcDbEntity
8
0
100
AcDbLine
10
1.9130000000000005
20
1.206
30
0
11
2.75
21
1.206
31
0
0
ENDSEC
0
SECTION
2
OBJECTS
0
DICTIONARY
5
C
100
AcDbDictionary
3
ACAD_GROUP
350
D
3
ACAD_MLINESTYLE
350
17
0
DICTIONARY
5
D
100
AcDbDictionary
0
DICTIONARY
5
1A
330
C
100
AcDbDictionary
0
DICTIONARY
5
17
100
AcDbDictionary
0
ENDSEC
0
EOF
