0
SECTION
2
HEADER
9
$INSUNITS
70
1
9
$ACADVER
1
AC1014
9
$HANDSEED
5
FFFF
0
ENDSEC
0
SECTION
2
TABLES
0
TABLE
2
VPORT
5
8
100
AcDbSymbolTable
0
ENDTAB
0
TABLE
2
LTYPE
5
5
100
AcDbSymbolTable
0
LTYPE
5
14
100
AcDbSymbolTableRecord
100
AcDbLinetypeTableRecord
2
BYBLOCK
70
0
0
LTYPE
5
15
100
AcDbSymbolTableRecord
100
AcDbLinetypeTableRecord
2
BYLAYER
70
0
0
LTYPE
5
16
100
AcDbSymbolTableRecord
100
AcDbLinetypeTableRecord
2
DASHED
70
0
3
Dashed __ __ __ __ __ __ __ __ __ __ __ __ __ _
72
65
73
2
40
0.75
49
0.5
74
0
49
-0.25
74
0
0
ENDTAB
0
TABLE
2
LAYER
5
2
100
AcDbSymbolTable
70
2
0
LAYER
5
50
100
AcDbSymbolTableRecord
100
AcDbLayerTableRecord
2
0
70
0
62
7
6
CONTINUOUS
0
ENDTAB
0
TABLE
2
STYLE
5
3
100
AcDbSymbolTable
70
1
0
STYLE
5
11
100
AcDbSymbolTableRecord
100
AcDbTextStyleTableRecord
2
STANDARD
70
0
0
ENDTAB
0
TABLE
2
VIEW
5
6
100
AcDbSymbolTable
70
0
0
ENDTAB
0
TABLE
2
UCS
5
7
100
AcDbSymbolTable
70
0
0
ENDTAB
0
TABLE
2
APPID
5
9
100
AcDbSymbolTable
70
2
0
APPID
5
12
100
AcDbSymbolTableRecord
100
AcDbRegAppTableRecord
2
ACAD
70
0
0
ENDTAB
0
TABLE
2
DIMSTYLE
5
A
100
AcDbSymbolTable
70
1
0
ENDTAB
0
TABLE
2
BLOCK_RECORD
5
1
100
AcDbSymbolTable
70
1
0
BLOCK_RECORD
5
1F
100
AcDbSymbolTableRecord
100
AcDbBlockTableRecord
2
*MODEL_SPACE
0
BLOCK_RECORD
5
1B
100
AcDbSymbolTableRecord
100
AcDbBlockTableRecord
2
*PAPER_SPACE
0
ENDTAB
0
ENDSEC
0
SECTION
2
BLOCKS
0
BLOCK
5
20
100
AcDbEntity
100
AcDbBlockBegin
2
*MODEL_SPACE
0
ENDBLK
5
21
100
AcDbEntity
100
AcDbBlockEnd
0
BLOCK
5
1C
100
AcDbEntity
100
AcDbBlockBegin
2
*PAPER_SPACE
0
ENDBLK
5
1D
100
AcDbEntity
100
AcDbBlockEnd
0
ENDSEC
0
SECTION
2
ENTITIES
0
LWPOLYLINE
5
100
100
AcDbEntity
8
0
100
AcDbPolyline
90
39
70
1
43
0.0
10
2.48899212598426
20
-0.93500000000000005
10
2.48899212598426
20
0.93500000000000005
10
1.7179921259842601
20
0.93500000000000005
10
1.5061362109807428
20
1.1425027112705679
10
1.4889921259842605
20
1.1495
10
1.11399212598426
20
1.1495
10
1.0629921259842501
20
1.2004999999999999
10
1.0629921259842501
20
1.21
10
1.0329921259842498
20
1.2399999999999998
10
0.85999999999999999
20
1.2399999999999998
10
0.75749999999999973
20
1.0424999999999998
10
0.57250000000000001
20
1.0424999999999998
10
0.46999999999999975
20
1.2399999999999998
10
0.060000000000000338
20
1.24
10
0.040000000000000001
20
1.2199999999999998
10
0.039999999999999945
20
0.88499999999999979
42
-0.41421356237308998
10
0.029999999999999999
20
0.875
10
0
20
0.875
10
-2.5628767480656598
20
0.50248884475789835
42
0.37254267776460537
10
-2.5800000000000001
20
0.48269681806615394
10
-2.5800000000000001
20
-5.9113311320332776e-17
10
-2.5800000000000001
20
-0.48269681806615394
42
0.37254267776460537
10
-2.5628767480656598
20
-0.50248884475789835
10
0
20
-0.875
10
0.029999999999999999
20
-0.875
42
-0.41421356237308998
10
0.040000000000000001
20
-0.88499999999999979
10
0.040000000000000001
20
-1.2199999999999998
10
0.060000000000000379
20
-1.24
10
0.46999999999999975
20
-1.2399999999999998
10
0.57250000000000001
20
-1.0424999999999998
10
0.75749999999999973
20
-1.0424999999999998
10
0.85999999999999999
20
-1.2399999999999998
10
1.0329921259842498
20
-1.2399999999999998
10
1.0629921259842501
20
-1.21
10
1.0629921259842501
20
-1.2005000000000099
10
1.11399212598426
20
-1.1495
10
1.4889921259842605
20
-1.1495
10
1.5061362109807428
20
-1.1425027112705679
10
1.7179921259842601
20
-0.93500000000000005
0
LINE
5
101
100
AcDbEntity
8
0
100
AcDbLine
10
1.9129999999999905
20
-1.206
30
0
11
1.9129999999999905
21
-1.1935753736948227
31
0
0
LINE
5
102
100
AcDbEntity
8
0
100
AcDbLine
10
2.7499999999999898
20
-1.206
30
0
11
2.7499999999999898
21
-1.1935753736948227
31
0
0
SPLINE
5
103
100
AcDbEntity
8
0
100
AcDbSpline
70
0
71
3
72
28
73
24
74
0
42
0.000000001
43
0.0000000001
44
0.0000000001
40
-1.7098491077351468
40
-1.7098491077351468
40
-1.7098491077351468
40
-1.7098491077351468
40
-1.6966311421382507
40
-1.6966311421382507
40
-1.6966311421382507
40
-1.5804528597715279
40
-1.5804528597715279
40
-1.4367759687475077
40
-1.4367759687475077
40
-1.2930979013056032
40
-1.2930979013056032
40
-1.1494198338636987
40
-1.1494198338636987
40
-1.0057417664217942
40
-1.0057417664217942
40
-0.86206369897988977
40
-0.86206369897988977
40
-0.71838680795586962
40
-0.71838680795586962
40
-0.60220852558915039
40
-0.60220852558915039
40
-0.60220852558915039
40
-0.58899055999689509
40
-0.58899055999689509
40
-0.58899055999689509
40
-0.58899055999689509
10
2.18149999999999
20
-1.206
30
0
10
2.1816332535569614
20
-1.2059834261745059
30
0
10
2.1817665097715215
20
-1.2059668737620217
30
0
10
2.1818997686487025
20
-1.2059503427672129
30
0
10
2.1830710372034252
20
-1.2058050448718129
30
0
10
2.1867377204599792
20
-1.2053440543021672
30
0
10
2.2005863679659927
20
-1.2037510224764174
30
0
10
2.2121272254281439
20
-1.2025016298618774
30
0
10
2.2387408491708154
20
-1.2001518935938726
30
0
10
2.2555948608954166
20
-1.1988982564419206
30
0
10
2.2925458997104911
20
-1.1971269197351129
30
0
10
2.3126446105719185
20
-1.1966352827825191
30
0
10
2.3503553894280618
20
-1.1966352827825191
30
0
10
2.3704541002894888
20
-1.1971269197351129
30
0
10
2.4074051391045637
20
-1.1988982564419206
30
0
10
2.4242591508291644
20
-1.2001518935938729
30
0
10
2.4508727745718364
20
-1.2025016298618776
30
0
10
2.4624136320339876
20
-1.2037510224764176
30
0
10
2.4762622795400007
20
-1.2053440543021672
30
0
10
2.4799289627965551
20
-1.2058050448718129
30
0
10
2.4811002313512778
20
-1.2059503427672129
30
0
10
2.4812334902284126
20
-1.2059668737620159
30
0
10
2.4813667464430655
20
-1.2059834261745119
30
0
10
2.4814999999999903
20
-1.206
30
0
0
LINE
5
104
100
AcDbEntity
8
0
100
AcDbLine
10
1.9129999999999905
20
-0.74632153078232832
30
0
11
1.9129999999999905
21
-0.44725384291250819
31
0
0
LINE
5
105
100
AcDbEntity
8
0
100
AcDbLine
10
1.9129999999999905
20
0.44725384291249082
30
0
11
1.9129999999999905
21
0.74632153078231345
31
0
0
LINE
5
106
100
AcDbEntity
8
0
100
AcDbLine
10
2.9999999999999898
20
-1.1000000000000001
30
0
11
2.9999999999999898
21
1.1000000000000001
31
0
0
LINE
5
107
100
AcDbEntity
8
0
100
AcDbLine
10
2.7499999999999898
20
-1.1000000000000001
30
0
11
2.7499999999999898
21
-1.1935753736948227
31
0
0
LINE
5
108
100
AcDbEntity
8
0
100
AcDbLine
10
2.7499999999999898
20
1.19357537369482
30
0
11
2.7499999999999898
21
1.1000000000000001
31
0
0
LINE
5
109
100
AcDbEntity
8
0
100
AcDbLine
10
2.7499999999999898
20
1.19357537369482
30
0
11
2.7499999999999898
21
1.206
31
0
0
LINE
5
110
100
AcDbEntity
8
0
100
AcDbLine
10
1.9129999999999905
20
1.1935753736948203
30
0
11
1.9129999999999905
21
1.206
31
0
0
LINE
5
111
100
AcDbEntity
8
0
100
AcDbLine
10
1.9129999999999905
20
1.1935753736948203
30
0
11
1.9129999999999905
21
0.74632153078231345
31
0
0
LINE
5
112
100
AcDbEntity
8
0
100
AcDbLine
10
1.9129999999999905
20
0.44725384291249082
30
0
11
1.9129999999999905
21
-0.44725384291250819
31
0
0
LINE
5
113
100
AcDbEntity
8
0
100
AcDbLine
10
1.9129999999999905
20
-0.74632153078232832
30
0
11
1.9129999999999905
21
-1.1935753736948227
31
0
0
LINE
5
114
100
AcDbEntity
8
0
100
AcDbLine
10
1.9129999999999905
20
-1.206
30
0
11
2.18149999999999
21
-1.206
31
0
0
LINE
5
115
100
AcDbEntity
8
0
100
AcDbLine
10
2.4814999999999898
20
-1.206
30
0
11
2.7499999999999898
21
-1.206
31
0
0
LINE
5
116
100
AcDbEntity
8
0
100
AcDbLine
10
2.7499999999999898
20
-1.1000000000000001
30
0
11
2.9999999999999898
21
-1.1000000000000001
31
0
0
LINE
5
117
100
AcDbEntity
8
0
100
AcDbLine
10
2.7499999999999898
20
1.1000000000000001
30
0
11
2.9999999999999898
21
1.1000000000000001
31
0
0
LINE
5
118
100
AcDbEntity
8
0
100
AcDbLine
10
1.9129999999999905
20
1.206
30
0
11
2.7499999999999898
21
1.206
31
0
0
ENDSEC
0
SECTION
2
OBJECTS
0
DICTIONARY
5
C
100
AcDbDictionary
3
ACAD_GROUP
350
D
3
ACAD_MLINESTYLE
350
17
0
DICTIONARY
5
D
100
AcDbDictionary
0
DICTIONARY
5
1A
330
C
100
AcDbDictionary
0
DICTIONARY
5
17
100
AcDbDictionary
0
ENDSEC
0
EOF
