  0
SECTION
  2
HEADER
  9
$ACADVER
  1
AC1015
  9
$ACADMAINTVER
 70
     6
  9
$DWGCODEPAGE
  3
ANSI_1252
  9
$INSBASE
 10
0.0
 20
0.0
 30
0.0
  9
$EXTMIN
 10
0.0
 20
-0.9055118163
 30
0.0
  9
$EXTMAX
 10
3.9055535433
 20
0.905511811
 30
0.0
  9
$LIMMIN
 10
0.0
 20
0.0
  9
$LIMMAX
 10
12.0
 20
9.0
  9
$ORTHOMODE
 70
     0
  9
$REGENMODE
 70
     1
  9
$FILLMODE
 70
     1
  9
$QTEXTMODE
 70
     0
  9
$MIRRTEXT
 70
     1
  9
$LTSCALE
 40
1.0
  9
$ATTMODE
 70
     1
  9
$TEXTSIZE
 40
0.125
  9
$TRACEWID
 40
0.05
  9
$TEXTSTYLE
  7
Standard
  9
$CLAYER
  8
0
  9
$CELTYPE
  6
ByLayer
  9
$CECOLOR
 62
   256
  9
$CELTSCALE
 40
1.0
  9
$DISPSILH
 70
     0
  9
$DIMSCALE
 40
1.0
  9
$DIMASZ
 40
0.13
  9
$DIMEXO
 40
0.05
  9
$DIMDLI
 40
0.38
  9
$DIMRND
 40
0.0
  9
$DIMDLE
 40
0.0
  9
$DIMEXE
 40
0.125
  9
$DIMTP
 40
0.0
  9
$DIMTM
 40
0.0
  9
$DIMTXT
 40
0.125
  9
$DIMCEN
 40
0.09
  9
$DIMTSZ
 40
0.0
  9
$DIMTOL
 70
     0
  9
$DIMLIM
 70
     0
  9
$DIMTIH
 70
     1
  9
$DIMTOH
 70
     1
  9
$DIMSE1
 70
     0
  9
$DIMSE2
 70
     0
  9
$DIMTAD
 70
     0
  9
$DIMZIN
 70
     0
  9
$DIMBLK
  1

  9
$DIMASO
 70
     1
  9
$DIMSHO
 70
     1
  9
$DIMPOST
  1

  9
$DIMAPOST
  1

  9
$DIMALT
 70
     0
  9
$DIMALTD
 70
     2
  9
$DIMALTF
 40
25.4
  9
$DIMLFAC
 40
1.0
  9
$DIMTOFL
 70
     0
  9
$DIMTVP
 40
0.0
  9
$DIMTIX
 70
     0
  9
$DIMSOXD
 70
     0
  9
$DIMSAH
 70
     0
  9
$DIMBLK1
  1

  9
$DIMBLK2
  1

  9
$DIMSTYLE
  2
Standard
  9
$DIMCLRD
 70
     0
  9
$DIMCLRE
 70
     0
  9
$DIMCLRT
 70
     0
  9
$DIMTFAC
 40
1.0
  9
$DIMGAP
 40
0.06
  9
$DIMJUST
 70
     0
  9
$DIMSD1
 70
     0
  9
$DIMSD2
 70
     0
  9
$DIMTOLJ
 70
     1
  9
$DIMTZIN
 70
     0
  9
$DIMALTZ
 70
     0
  9
$DIMALTTZ
 70
     0
  9
$DIMUPT
 70
     0
  9
$DIMDEC
 70
     2
  9
$DIMTDEC
 70
     2
  9
$DIMALTU
 70
     2
  9
$DIMALTTD
 70
     2
  9
$DIMTXSTY
  7
Standard
  9
$DIMAUNIT
 70
     0
  9
$DIMADEC
 70
     2
  9
$DIMALTRND
 40
0.0
  9
$DIMAZIN
 70
     0
  9
$DIMDSEP
 70
    46
  9
$DIMATFIT
 70
     3
  9
$DIMFRAC
 70
     0
  9
$DIMLDRBLK
  1

  9
$DIMLUNIT
 70
     2
  9
$DIMLWD
 70
    -2
  9
$DIMLWE
 70
    -2
  9
$DIMTMOVE
 70
     0
  9
$LUNITS
 70
     2
  9
$LUPREC
 70
     2
  9
$SKETCHINC
 40
0.1
  9
$FILLETRAD
 40
0.5
  9
$AUNITS
 70
     0
  9
$AUPREC
 70
     2
  9
$MENU
  1
.
  9
$ELEVATION
 40
0.0
  9
$PELEVATION
 40
0.0
  9
$THICKNESS
 40
0.0
  9
$LIMCHECK
 70
     0
  9
$CHAMFERA
 40
0.0
  9
$CHAMFERB
 40
0.0
  9
$CHAMFERC
 40
0.0
  9
$CHAMFERD
 40
0.0
  9
$SKPOLY
 70
     0
  9
$TDCREATE
 40
2458165.465322593
  9
$TDUCREATE
 40
2458165.715322593
  9
$TDUPDATE
 40
2458165.465338947
  9
$TDUUPDATE
 40
2458165.715338947
  9
$TDINDWG
 40
0.0000000116
  9
$TDUSRTIMER
 40
0.0000000116
  9
$USRTIMER
 70
     1
  9
$ANGBASE
 50
0.0
  9
$ANGDIR
 70
     0
  9
$PDMODE
 70
     0
  9
$PDSIZE
 40
-1.0
  9
$PLINEWID
 40
0.0
  9
$SPLFRAME
 70
     0
  9
$SPLINETYPE
 70
     6
  9
$SPLINESEGS
 70
     8
  9
$HANDSEED
  5
130
  9
$SURFTAB1
 70
     6
  9
$SURFTAB2
 70
     6
  9
$SURFTYPE
 70
     6
  9
$SURFU
 70
     6
  9
$SURFV
 70
     6
  9
$UCSBASE
  2

  9
$UCSNAME
  2

  9
$UCSORG
 10
0.0
 20
0.0
 30
0.0
  9
$UCSXDIR
 10
1.0
 20
0.0
 30
0.0
  9
$UCSYDIR
 10
0.0
 20
1.0
 30
0.0
  9
$UCSORTHOREF
  2

  9
$UCSORTHOVIEW
 70
     0
  9
$UCSORGTOP
 10
0.0
 20
0.0
 30
0.0
  9
$UCSORGBOTTOM
 10
0.0
 20
0.0
 30
0.0
  9
$UCSORGLEFT
 10
0.0
 20
0.0
 30
0.0
  9
$UCSORGRIGHT
 10
0.0
 20
0.0
 30
0.0
  9
$UCSORGFRONT
 10
0.0
 20
0.0
 30
0.0
  9
$UCSORGBACK
 10
0.0
 20
0.0
 30
0.0
  9
$PUCSBASE
  2

  9
$PUCSNAME
  2

  9
$PUCSORG
 10
0.0
 20
0.0
 30
0.0
  9
$PUCSXDIR
 10
1.0
 20
0.0
 30
0.0
  9
$PUCSYDIR
 10
0.0
 20
1.0
 30
0.0
  9
$PUCSORTHOREF
  2

  9
$PUCSORTHOVIEW
 70
     0
  9
$PUCSORGTOP
 10
0.0
 20
0.0
 30
0.0
  9
$PUCSORGBOTTOM
 10
0.0
 20
0.0
 30
0.0
  9
$PUCSORGLEFT
 10
0.0
 20
0.0
 30
0.0
  9
$PUCSORGRIGHT
 10
0.0
 20
0.0
 30
0.0
  9
$PUCSORGFRONT
 10
0.0
 20
0.0
 30
0.0
  9
$PUCSORGBACK
 10
0.0
 20
0.0
 30
0.0
  9
$USERI1
 70
     0
  9
$USERI2
 70
     0
  9
$USERI3
 70
     0
  9
$USERI4
 70
     0
  9
$USERI5
 70
     0
  9
$USERR1
 40
0.0
  9
$USERR2
 40
0.0
  9
$USERR3
 40
0.0
  9
$USERR4
 40
0.0
  9
$USERR5
 40
0.0
  9
$WORLDVIEW
 70
     1
  9
$SHADEDGE
 70
     3
  9
$SHADEDIF
 70
    70
  9
$TILEMODE
 70
     1
  9
$MAXACTVP
 70
    64
  9
$PINSBASE
 10
0.0
 20
0.0
 30
0.0
  9
$PLIMCHECK
 70
     0
  9
$PEXTMIN
 10
1.0000000000E+20
 20
1.0000000000E+20
 30
1.0000000000E+20
  9
$PEXTMAX
 10
-1.0000000000E+20
 20
-1.0000000000E+20
 30
-1.0000000000E+20
  9
$PLIMMIN
 10
0.0
 20
0.0
  9
$PLIMMAX
 10
12.0
 20
9.0
  9
$UNITMODE
 70
     0
  9
$VISRETAIN
 70
     1
  9
$PLINEGEN
 70
     0
  9
$PSLTSCALE
 70
     1
  9
$TREEDEPTH
 70
  3020
  9
$CMLSTYLE
  2
Standard
  9
$CMLJUST
 70
     0
  9
$CMLSCALE
 40
1.0
  9
$PROXYGRAPHICS
 70
     1
  9
$MEASUREMENT
 70
     0
  9
$CELWEIGHT
370
    -1
  9
$ENDCAPS
280
     0
  9
$JOINSTYLE
280
     0
  9
$LWDISPLAY
290
     1
  9
$INSUNITS
 70
     1
  9
$HYPERLINKBASE
  1

  9
$STYLESHEET
  1

  9
$XEDIT
290
     1
  9
$CEPSNTYPE
380
     0
  9
$PSTYLEMODE
290
     1
  9
$FINGERPRINTGUID
  2
{765E9E3F-E4A0-4D34-A7D6-593AA0D4EF8F}
  9
$VERSIONGUID
  2
{FAEB1C32-E019-11D5-929B-00C0DF256EC4}
  9
$EXTNAMES
290
     1
  9
$PSVPSCALE
 40
0.0
  9
$OLESTARTUP
290
     0
  0
ENDSEC
  0
SECTION
  2
CLASSES
  0
CLASS
  1
ACDBDICTIONARYWDFLT
  2
AcDbDictionaryWithDefault
  3
ObjectDBX Classes
 90
        0
280
     0
281
     0
  0
CLASS
  1
VISUALSTYLE
  2
AcDbVisualStyle
  3
ObjectDBX Classes
 90
     4095
280
     0
281
     0
  0
CLASS
  1
MATERIAL
  2
AcDbMaterial
  3
ObjectDBX Classes
 90
     1153
280
     0
281
     0
  0
CLASS
  1
SCALE
  2
AcDbScale
  3
ObjectDBX Classes
 90
     1153
280
     0
281
     0
  0
CLASS
  1
TABLESTYLE
  2
AcDbTableStyle
  3
ObjectDBX Classes
 90
     4095
280
     0
281
     0
  0
CLASS
  1
MLEADERSTYLE
  2
AcDbMLeaderStyle
  3
ACDB_MLEADERSTYLE_CLASS
 90
     4095
280
     0
281
     0
  0
CLASS
  1
SUN
  2
AcDbSun
  3
SCENEOE
 90
     1153
280
     0
281
     0
  0
CLASS
  1
ACDBPLACEHOLDER
  2
AcDbPlaceHolder
  3
ObjectDBX Classes
 90
        0
280
     0
281
     0
  0
CLASS
  1
LAYOUT
  2
AcDbLayout
  3
ObjectDBX Classes
 90
        0
280
     0
281
     0
  0
ENDSEC
  0
SECTION
  2
TABLES
  0
TABLE
  2
VPORT
  5
8
330
0
100
AcDbSymbolTable
 70
     1
  0
VPORT
  5
29
330
8
100
AcDbSymbolTableRecord
100
AcDbViewportTableRecord
  2
*Active
 70
     0
 10
0.0
 20
0.0
 11
1.0
 21
1.0
 12
1.9527767717
 22
-0.0000000027
 13
0.0
 23
0.0
 14
0.5
 24
0.5
 15
0.5
 25
0.5
 16
0.0
 26
0.0
 36
1.0
 17
0.0
 27
0.0
 37
0.0
 40
1.8472440999
 41
2.1565447763
 42
50.0
 43
0.0
 44
0.0
 50
0.0
 51
0.0
 71
     0
 72
   100
 73
     1
 74
     3
 75
     0
 76
     0
 77
     0
 78
     0
281
     0
 65
     1
110
0.0
120
0.0
130
0.0
111
1.0
121
0.0
131
0.0
112
0.0
122
1.0
132
0.0
 79
     0
146
0.0
  0
ENDTAB
  0
TABLE
  2
LTYPE
  5
5
330
0
100
AcDbSymbolTable
 70
     6
  0
LTYPE
  5
14
330
5
100
AcDbSymbolTableRecord
100
AcDbLinetypeTableRecord
  2
ByBlock
 70
     0
  3

 72
    65
 73
     0
 40
0.0
  0
LTYPE
  5
15
330
5
100
AcDbSymbolTableRecord
100
AcDbLinetypeTableRecord
  2
ByLayer
 70
     0
  3

 72
    65
 73
     0
 40
0.0
  0
LTYPE
  5
16
330
5
100
AcDbSymbolTableRecord
100
AcDbLinetypeTableRecord
  2
Continuous
 70
     0
  3
Solid line
 72
    65
 73
     0
 40
0.0
  0
LTYPE
  5
6E
330
5
100
AcDbSymbolTableRecord
100
AcDbLinetypeTableRecord
  2
HIDDEN
 70
     0
  3
Hidden __ __ __ __ __ __ __ __ __ __ __ __ __ __
 72
    65
 73
     2
 40
0.075
 49
0.05
 74
     0
 49
-0.025
 74
     0
  0
LTYPE
  5
6F
330
5
100
AcDbSymbolTableRecord
100
AcDbLinetypeTableRecord
  2
PHANTOM
 70
     0
  3
Phantom ______  __  __  ______  __  __  ______
 72
    65
 73
     6
 40
0.5
 49
0.25
 74
     0
 49
-0.05
 74
     0
 49
0.05
 74
     0
 49
-0.05
 74
     0
 49
0.05
 74
     0
 49
-0.05
 74
     0
  0
LTYPE
  5
70
330
5
100
AcDbSymbolTableRecord
100
AcDbLinetypeTableRecord
  2
CENTER
 70
     0
  3
Center ____ _ ____ _ ____ _ ____ _ ____ _ ____
 72
    65
 73
     4
 40
0.4
 49
0.25
 74
     0
 49
-0.05
 74
     0
 49
0.05
 74
     0
 49
-0.05
 74
     0
  0
LTYPE
  5
71
330
5
100
AcDbSymbolTableRecord
100
AcDbLinetypeTableRecord
  2
CENTERX2
 70
     0
  3
Center (2x) ________  __  ________  __  _____
 72
    65
 73
     4
 40
0.8
 49
0.5
 74
     0
 49
-0.1
 74
     0
 49
0.1
 74
     0
 49
-0.1
 74
     0
  0
LTYPE
  5
72
330
5
100
AcDbSymbolTableRecord
100
AcDbLinetypeTableRecord
  2
DOT2
 70
     0
  3
Dot (.5x) ........................................
 72
    65
 73
     2
 40
0.025
 49
0.0
 74
     0
 49
-0.025
 74
     0
  0
ENDTAB
  0
TABLE
  2
LAYER
  5
2
330
0
100
AcDbSymbolTable
 70
     1
  0
LAYER
  5
10
330
2
100
AcDbSymbolTableRecord
100
AcDbLayerTableRecord
  2
0
 70
     0
 62
     7
  6
Continuous
370
    -3
390
F
  0
ENDTAB
  0
TABLE
  2
STYLE
  5
3
330
0
100
AcDbSymbolTable
 70
     1
  0
STYLE
  5
11
330
3
100
AcDbSymbolTableRecord
100
AcDbTextStyleTableRecord
  2
Standard
 70
     0
 40
0.0
 41
1.0
 50
0.0
 71
     0
 42
0.125
  3
txt
  4

  0
ENDTAB
  0
TABLE
  2
VIEW
  5
6
330
0
100
AcDbSymbolTable
 70
     0
  0
ENDTAB
  0
TABLE
  2
UCS
  5
7
330
0
100
AcDbSymbolTable
 70
     0
  0
ENDTAB
  0
TABLE
  2
APPID
  5
9
330
0
100
AcDbSymbolTable
 70
     1
  0
APPID
  5
12
330
9
100
AcDbSymbolTableRecord
100
AcDbRegAppTableRecord
  2
ACAD
 70
     0
  0
ENDTAB
  0
TABLE
  2
DIMSTYLE
  5
A
330
0
100
AcDbSymbolTable
 70
     1
100
AcDbDimStyleTable
  0
DIMSTYLE
105
27
330
A
100
AcDbSymbolTableRecord
100
AcDbDimStyleTableRecord
  2
Standard
 70
     0
178
     0
340
11
  0
ENDTAB
  0
TABLE
  2
BLOCK_RECORD
  5
1
330
0
100
AcDbSymbolTable
 70
     1
  0
BLOCK_RECORD
  5
1F
330
1
100
AcDbSymbolTableRecord
100
AcDbBlockTableRecord
  2
*Model_Space
340
22
  0
BLOCK_RECORD
  5
1B
330
1
100
AcDbSymbolTableRecord
100
AcDbBlockTableRecord
  2
*Paper_Space
340
1E
  0
BLOCK_RECORD
  5
23
330
1
100
AcDbSymbolTableRecord
100
AcDbBlockTableRecord
  2
*Paper_Space0
340
26
  0
ENDTAB
  0
ENDSEC
  0
SECTION
  2
BLOCKS
  0
BLOCK
  5
20
330
1F
100
AcDbEntity
  8
0
100
AcDbBlockBegin
  2
*Model_Space
 70
     0
 10
0.0
 20
0.0
 30
0.0
  3
*Model_Space
  1

  0
ENDBLK
  5
21
330
1F
100
AcDbEntity
  8
0
100
AcDbBlockEnd
  0
BLOCK
  5
1C
330
1B
100
AcDbEntity
 67
     1
  8
0
100
AcDbBlockBegin
  2
*Paper_Space
 70
     0
 10
0.0
 20
0.0
 30
0.0
  3
*Paper_Space
  1

  0
ENDBLK
  5
1D
330
1B
100
AcDbEntity
 67
     1
  8
0
100
AcDbBlockEnd
  0
BLOCK
  5
24
330
23
100
AcDbEntity
  8
0
100
AcDbBlockBegin
  2
*Paper_Space0
 70
     0
 10
0.0
 20
0.0
 30
0.0
  3
*Paper_Space0
  1

  0
ENDBLK
  5
25
330
23
100
AcDbEntity
  8
0
100
AcDbBlockEnd
  0
ENDSEC
  0
SECTION
  2
ENTITIES
  0
SPLINE
  5
7B
330
1F
100
AcDbEntity
  8
0
  6
Continuous
 62
     7
370
    25
100
AcDbSpline
210
0.0
220
0.0
230
1.0
 70
     8
 71
     3
 72
    10
 73
     6
 74
     0
 42
0.000000001
 43
0.00000001
 40
0.0
 40
0.0
 40
0.0
 40
0.0
 40
0.3325281483029856
 40
0.6667563540265548
 40
1.0
 40
1.0
 40
1.0
 40
1.0
 10
2.612902940669848
 20
-0.9032445312856584
 30
0.0
 10
2.613252082146831
 20
-0.9036637461673578
 30
0.0
 10
2.613952150094224
 20
-0.904504319175995
 30
0.0
 10
2.61542422313208
 20
-0.905330897227515
 30
0.0
 10
2.616515263955161
 20
-0.9054515692980944
 30
0.0
 10
2.617059979692407
 20
-0.9055118163342276
 30
0.0
  0
SPLINE
  5
99
330
1F
100
AcDbEntity
  8
0
  6
Continuous
 62
     7
370
    25
100
AcDbSpline
210
0.0
220
0.0
230
1.0
 70
     8
 71
     3
 72
    21
 73
    17
 74
     0
 42
0.000000001
 43
0.00000001
 40
0.0
 40
0.0
 40
0.0
 40
0.0
 40
0.0551027938752336
 40
0.1101685772892743
 40
0.1652579138947636
 40
0.2204312897816355
 40
0.2757489153667033
 40
0.3312705317740579
 40
0.3870552247561416
 40
0.4431612489267645
 40
0.4996458647073274
 40
0.5987585208024008
 40
0.6980580940027398
 40
0.7978391061472707
 40
0.8983918489248045
 40
1.0
 40
1.0
 40
1.0
 40
1.0
 10
2.673134475944003
 20
-0.0000122323597017
 30
0.0
 10
2.673100950889944
 20
-0.0036718637953327
 30
0.0
 10
2.673033923299337
 20
-0.0109886686306639
 30
0.0
 10
2.672472250504828
 20
-0.021950729576071
 30
0.0
 10
2.671572845044504
 20
-0.0328902556293438
 30
0.0
 10
2.67030268351042
 20
-0.0438056455312614
 30
0.0
 10
2.668670639988468
 20
-0.0546952969942987
 30
0.0
 10
2.666674344199965
 20
-0.0655576404238028
 30
0.0
 10
2.664314479558342
 20
-0.0763910967286015
 30
0.0
 10
2.66159081501639
 20
-0.0871942184566037
 30
0.0
 10
2.657735319401044
 20
-0.100646202782614
 30
0.0
 10
2.652395321894983
 20
-0.1166068761397859
 30
0.0
 10
2.645134529495774
 20
-0.1348648032126237
 30
0.0
 10
2.636827317496683
 20
-0.1527256282276969
 30
0.0
 10
2.627552396369874
 20
-0.170238921505997
 30
0.0
 10
2.620569603456609
 20
-0.1814748298193919
 30
0.0
 10
2.617059979692408
 20
-0.187122113265844
 30
0.0
  0
SPLINE
  5
9A
330
1F
100
AcDbEntity
  8
0
  6
Continuous
 62
     7
370
    25
100
AcDbSpline
210
0.0
220
0.0
230
1.0
 70
     8
 71
     3
 72
    14
 73
    10
 74
     0
 42
0.000000001
 43
0.00000001
 40
0.0
 40
0.0
 40
0.0
 40
0.0
 40
0.2859912229500974
 40
0.4985912710059388
 40
0.6211507173008558
 40
0.7479638107973778
 40
0.8728931596223606
 40
0.9568131360223896
 40
0.9999999999999999
 40
0.9999999999999999
 40
0.9999999999999999
 40
0.9999999999999999
 10
2.617059979692407
 20
-0.187122113265844
 30
0.0
 10
2.616603534288251
 20
-0.1877856695905987
 30
0.0
 10
2.61580777667074
 20
-0.1889425001671831
 30
0.0
 10
2.614466515451974
 20
-0.1899524062793134
 30
0.0
 10
2.613418541941471
 20
-0.190019593370999
 30
0.0
 10
2.612773352781229
 20
-0.1894879039642934
 30
0.0
 10
2.612462963342263
 20
-0.1887593876284895
 30
0.0
 10
2.612232616582171
 20
-0.1881734557092573
 30
0.0
 10
2.612278474289524
 20
-0.1878178384798243
 30
0.0
 10
2.612294055280791
 20
-0.1876970110493729
 30
0.0
  0
SPLINE
  5
9B
330
1F
100
AcDbEntity
  8
0
  6
Continuous
 62
     7
370
    25
100
AcDbSpline
210
0.0
220
0.0
230
1.0
 70
     8
 71
     3
 72
    11
 73
     7
 74
     0
 42
0.000000001
 43
0.00000001
 40
0.0
 40
0.0
 40
0.0
 40
0.0
 40
0.2342470836061981
 40
0.5002150891581192
 40
0.6861851322622822
 40
1.0
 40
1.0
 40
1.0
 40
1.0
 10
2.612294055280791
 20
-0.1876970110493729
 30
0.0
 10
2.612691208423459
 20
-0.1851839841003635
 30
0.0
 10
2.613539295800302
 20
-0.1798176248697456
 30
0.0
 10
2.614827371199112
 20
-0.1724261104399772
 30
0.0
 10
2.616319799495223
 20
-0.1641641677440098
 30
0.0
 10
2.617257834067536
 20
-0.1587530712216792
 30
0.0
 10
2.617846825829507
 20
-0.1553554445574191
 30
0.0
  0
SPLINE
  5
9C
330
1F
100
AcDbEntity
  8
0
  6
Continuous
 62
     7
370
    25
100
AcDbSpline
210
0.0
220
0.0
230
1.0
 70
     8
 71
     3
 72
    18
 73
    14
 74
     0
 42
0.000000001
 43
0.00000001
 40
0.0
 40
0.0
 40
0.0
 40
0.0
 40
0.2499999999999991
 40
0.2499999999999991
 40
0.3749999999999992
 40
0.3749999999999992
 40
0.4999999999999993
 40
0.4999999999999993
 40
0.6249999999999994
 40
0.6249999999999994
 40
0.7499999999999996
 40
0.7499999999999996
 40
1.0
 40
1.0
 40
1.0
 40
1.0
 10
2.617895802233
 20
0.1553943859064651
 30
0.0
 10
2.630838639419922
 20
0.1316384544533288
 30
0.0
 10
2.64065542858698
 20
0.1066652917989351
 30
0.0
 10
2.650703253636751
 20
0.0673739225665606
 30
0.0
 10
2.653269851616836
 20
0.0538693630002458
 30
0.0
 10
2.65664812413495
 20
0.0269146172521198
 30
0.0
 10
2.657483746753023
 20
0.0134229470251418
 30
0.0
 10
2.657476862067774
 20
-0.0135885187419124
 30
0.0
 10
2.656634439858266
 20
-0.027108312877627
 30
0.0
 10
2.65322052221864
 20
-0.0541768650001884
 30
0.0
 10
2.650654310702029
 20
-0.0675932453690914
 30
0.0
 10
2.640628296860879
 20
-0.1067149931045711
 30
0.0
 10
2.630838662459595
 20
-0.1316379356169661
 30
0.0
 10
2.617897111879138
 20
-0.1553919820922523
 30
0.0
  0
SPLINE
  5
9D
330
1F
100
AcDbEntity
  8
0
  6
Continuous
 62
     7
370
    25
100
AcDbSpline
210
0.0
220
0.0
230
1.0
 70
     8
 71
     3
 72
    13
 73
     9
 74
     0
 42
0.000000001
 43
0.00000001
 40
0.0
 40
0.0
 40
0.0
 40
0.0
 40
0.1976745377136165
 40
0.4887617668276028
 40
0.6313604009405945
 40
0.7342988170159024
 40
0.8691363512781104
 40
0.9999999999999999
 40
0.9999999999999999
 40
0.9999999999999999
 40
0.9999999999999999
 10
2.617838125628909
 20
0.1553505220849503
 30
0.0
 10
2.617473915944392
 20
0.1575159548952826
 30
0.0
 10
2.616573386361984
 20
0.162870113192887
 30
0.0
 10
2.615259835979002
 20
0.1697589342129043
 30
0.0
 10
2.614173468023965
 20
0.1756076444216904
 30
0.0
 10
2.613614932725226
 20
0.1797456313724772
 30
0.0
 10
2.613537076813781
 20
0.1837201457941866
 30
0.0
 10
2.61403829846322
 20
0.1863345150447374
 30
0.0
 10
2.614285161097129
 20
0.1876221491282254
 30
0.0
  0
SPLINE
  5
9E
330
1F
100
AcDbEntity
  8
0
  6
Continuous
 62
     7
370
    25
100
AcDbSpline
210
0.0
220
0.0
230
1.0
 70
     8
 71
     3
 72
    21
 73
    17
 74
     0
 42
0.000000001
 43
0.00000001
 40
0.0
 40
0.0
 40
0.0
 40
0.0
 40
0.0543340155696255
 40
0.1088201736879914
 40
0.1635334395708948
 40
0.2185478499593332
 40
0.2739362339216596
 40
0.3297699570383343
 40
0.3861186927674889
 40
0.4430502236786912
 40
0.5006302741129829
 40
0.6016833778362812
 40
0.7017922345719031
 40
0.8013087394065911
 40
0.9005910861951709
 40
1.0
 40
1.0
 40
1.0
 40
1.0
 10
2.614391031593741
 20
0.1881249190143246
 30
0.0
 10
2.616470908782704
 20
0.1851896256987878
 30
0.0
 10
2.620636487096395
 20
0.179310819851784
 30
0.0
 10
2.626464431252686
 20
0.1701708585552272
 30
0.0
 10
2.63199152556263
 20
0.160785625509194
 30
0.0
 10
2.637187134451811
 20
0.1511318462724285
 30
0.0
 10
2.642059522213477
 20
0.1412155082313608
 30
0.0
 10
2.646606463627203
 20
0.1310348673248192
 30
0.0
 10
2.650828583506423
 20
0.120590508881725
 30
0.0
 10
2.654725730643186
 20
0.1098824166471082
 30
0.0
 10
2.659181996803844
 20
0.0961968566764388
 30
0.0
 10
2.663783458545318
 20
0.0795093338937238
 30
0.0
 10
2.667980901999937
 20
0.0598003095551704
 30
0.0
 10
2.670948670771765
 20
0.0399647367820086
 30
0.0
 10
2.672795665946318
 20
0.0200127228963172
 30
0.0
 10
2.673007573447767
 20
0.0066655869183855
 30
0.0
 10
2.673113594691394
 20
-0.0000122321563382
 30
0.0
  0
SPLINE
  5
9F
330
1F
100
AcDbEntity
  8
0
  6
Continuous
 62
     7
370
    25
100
AcDbSpline
210
0.0
220
0.0
230
1.0
 70
     8
 71
     3
 72
    25
 73
    21
 74
     0
 42
0.000000001
 43
0.00000001
 40
0.0
 40
0.0
 40
0.0
 40
0.0
 40
0.0804482647870226
 40
0.162028130446889
 40
0.2447294654956061
 40
0.2805319385106592
 40
0.3165406600559756
 40
0.3527556303932524
 40
0.3891768497636172
 40
0.4258043183880013
 40
0.4626380364674999
 40
0.4996780041837218
 40
0.5522314126383282
 40
0.6076386459777372
 40
0.6658994971433562
 40
0.7270137479886952
 40
0.790981169335552
 40
0.8578015210184191
 40
0.927474551920007
 40
1.0
 40
1.0
 40
1.0
 40
1.0
 10
2.617059977074693
 20
0.9055111296793206
 30
0.0
 10
2.61705590405293
 20
0.9044636715468317
 30
0.0
 10
2.617047700717492
 20
0.9023540215329023
 30
0.0
 10
2.616982391943322
 20
0.885164928129222
 30
0.0
 10
2.616898635136066
 20
0.8627876597833738
 30
0.0
 10
2.616815870434737
 20
0.840541143316091
 30
0.0
 10
2.616750729036837
 20
0.8229885661003514
 30
0.0
 10
2.61667791125705
 20
0.8033375580912379
 30
0.0
 10
2.616597432909271
 20
0.7816069518113128
 30
0.0
 10
2.61650929915588
 20
0.7578158436070909
 30
0.0
 10
2.616413473063623
 20
0.7319909830202914
 30
0.0
 10
2.616295858074941
 20
0.7003344408926713
 30
0.0
 10
2.616149202465358
 20
0.661195232694829
 30
0.0
 10
2.615966613944967
 20
0.6126606913846804
 30
0.0
 10
2.615761085610722
 20
0.557861598341079
 30
0.0
 10
2.61553254450052
 20
0.496599180144479
 30
0.0
 10
2.61528105471428
 20
0.4287949283169611
 30
0.0
 10
2.615006401627132
 20
0.3544538443414651
 30
0.0
 10
2.614709406940749
 20
0.2739289371747169
 30
0.0
 10
2.614498566487572
 20
0.2171062018611209
 30
0.0
 10
2.614391031593742
 20
0.1881249190143248
 30
0.0
  0
SPLINE
  5
A0
330
1F
100
AcDbEntity
  8
0
  6
Continuous
 62
     7
370
    25
100
AcDbSpline
210
0.0
220
0.0
230
1.0
 70
     8
 71
     3
 72
    20
 73
    16
 74
     0
 42
0.000000001
 43
0.00000001
 40
0.0
 40
0.0
 40
0.0
 40
0.0
 40
0.0009560645826455
 40
0.0842097258674251
 40
0.1674633871522047
 40
0.2507170484369841
 40
0.3339707097217636
 40
0.4172243710065432
 40
0.5004780322913227
 40
0.5837316935761022
 40
0.6669853548608818
 40
0.7502390161456614
 40
0.8334926774304408
 40
0.9167463387152204
 40
1.0
 40
1.0
 40
1.0
 40
1.0
 10
2.617059969776844
 20
-0.9055012374942313
 30
0.0
 10
2.617059973103659
 20
-0.905504615206076
 30
0.0
 10
2.617060266127991
 20
-0.9058021225018038
 30
0.0
 10
2.617059847865419
 20
-0.9013445299404715
 30
0.0
 10
2.617060015015344
 20
-0.8839705278637882
 30
0.0
 10
2.617059970227655
 20
-0.8550011534024796
 30
0.0
 10
2.617059982228481
 20
-0.8151016738771997
 30
0.0
 10
2.61705997901287
 20
-0.7647066512868932
 30
0.0
 10
2.61705997987449
 20
-0.704484692440024
 30
0.0
 10
2.61705997964362
 20
-0.6352055114924168
 30
0.0
 10
2.617059979705481
 20
-0.5577570646870549
 30
0.0
 10
2.617059979688908
 20
-0.4731503554632727
 30
0.0
 10
2.617059979693343
 20
-0.3824145236085975
 30
0.0
 10
2.617059979692175
 20
-0.2869350469509476
 30
0.0
 10
2.617059979692332
 20
-0.2203930910999036
 30
0.0
 10
2.61705997969241
 20
-0.1871221131743815
 30
0.0
  0
SPLINE
  5
A1
330
1F
100
AcDbEntity
  8
0
  6
Continuous
 62
     7
370
    25
100
AcDbSpline
210
0.0
220
0.0
230
1.0
 70
     8
 71
     3
 72
    11
 73
     7
 74
     0
 42
0.000000001
 43
0.00000001
 40
0.0
 40
0.0
 40
0.0
 40
0.0
 40
0.225879101775011
 40
0.49998992255506
 40
0.749982004182563
 40
1.0
 40
1.0
 40
1.0
 40
1.0
 10
2.521400219550414
 20
0.2837816779040572
 30
0.0
 10
2.522064978461836
 20
0.2818419797186213
 30
0.0
 10
2.523536441532249
 20
0.2775484017032356
 30
0.0
 10
2.525744887946025
 20
0.2710595134922625
 30
0.0
 10
2.52798908739682
 20
0.2643234108504842
 30
0.0
 10
2.529398123930389
 20
0.259937849969541
 30
0.0
 10
2.530102678710478
 20
0.2577449558831023
 30
0.0
  0
SPLINE
  5
A2
330
1F
100
AcDbEntity
  8
0
  6
Continuous
 62
     7
370
    25
100
AcDbSpline
210
0.0
220
0.0
230
1.0
 70
     8
 71
     3
 72
     8
 73
     4
 74
     0
 42
0.000000001
 43
0.00000001
 40
0.0
 40
0.0
 40
0.0
 40
0.0
 40
1.0
 40
1.0
 40
1.0
 40
1.0
 10
2.522473378461224
 20
0.2835221179813803
 30
0.0
 10
2.552645712273743
 20
0.2617317651249484
 30
0.0
 10
2.582818046086263
 20
0.2296020060373201
 30
0.0
 10
2.612990379898783
 20
0.1871549607627715
 30
0.0
  0
SPLINE
  5
A3
330
1F
100
AcDbEntity
  8
0
  6
Continuous
 62
     7
370
    25
100
AcDbSpline
210
0.0
220
0.0
230
1.0
 70
     8
 71
     3
 72
    12
 73
     8
 74
     0
 42
0.000000001
 43
0.00000001
 40
0.0
 40
0.0
 40
0.0
 40
0.0
 40
0.4999999999999987
 40
0.4999999999999987
 40
0.7499999999999993
 40
0.7499999999999993
 40
1.0
 40
1.0
 40
1.0
 40
1.0
 10
2.530202563568961
 20
0.2578387151967788
 30
0.0
 10
2.54577570134422
 20
0.2459084267675889
 30
0.0
 10
2.561086652640818
 20
0.2319939753018484
 30
0.0
 10
2.583212453579678
 20
0.2070094405194605
 30
0.0
 10
2.590445874205379
 20
0.1979895822520945
 30
0.0
 10
2.604511583845366
 20
0.1781870670580119
 30
0.0
 10
2.611345795611184
 20
0.1674151687345875
 30
0.0
 10
2.617888045905175
 20
0.1554086214133116
 30
0.0
  0
SPLINE
  5
A4
330
1F
100
AcDbEntity
  8
0
  6
Continuous
 62
     7
370
    25
100
AcDbSpline
210
0.0
220
0.0
230
1.0
 70
     8
 71
     3
 72
    82
 73
    78
 74
     0
 42
0.000000001
 43
0.00000001
 40
0.0
 40
0.0
 40
0.0
 40
0.0
 40
0.0158231919856797
 40
0.0315788942682785
 40
0.0472671162405847
 40
0.0628878672215578
 40
0.0784411564563303
 40
0.0939269931162071
 40
0.1093453862986679
 40
0.1246963450273647
 40
0.1399798782521257
 40
0.1551959948489538
 40
0.1703447036200286
 40
0.185426013293706
 40
0.2004399325245191
 40
0.2153864698931794
 40
0.2302656339065776
 40
0.2450774329977836
 40
0.2598218755260476
 40
0.2744989697768006
 40
0.2891087239616566
 40
0.303651146218411
 40
0.3181262446110447
 40
0.3325340271297206
 40
0.3468745016907888
 40
0.3611476761367852
 40
0.3753535582364322
 40
0.389492155684641
 40
0.4035634761025124
 40
0.4175675270373359
 40
0.4315043159625937
 40
0.4453738502779594
 40
0.4591761373093001
 40
0.4729111843086771
 40
0.4865789984543477
 40
0.5001795868507661
 40
0.5137129565285838
 40
0.5271791144446522
 40
0.540578067482023
 40
0.5539098224499496
 40
0.5671743860838885
 40
0.5803717650455011
 40
0.5935019659226548
 40
0.6065649952294241
 40
0.6195608594060925
 40
0.6324895648191542
 40
0.6453511177613153
 40
0.6581455244514959
 40
0.6708727910348308
 40
0.6835329235826724
 40
0.6961259280925921
 40
0.7086518104883816
 40
0.7211105766200551
 40
0.7335022322638519
 40
0.7458267831222368
 40
0.7580842348239039
 40
0.770274592923777
 40
0.7823978629030137
 40
0.7944540501690056
 40
0.8064431600553821
 40
0.8183651978220114
 40
0.8302201686550045
 40
0.8420080776667164
 40
0.8537289298957488
 40
0.8653827303069535
 40
0.8769694837914344
 40
0.8884891951665507
 40
0.8999418691759191
 40
0.9113275104894178
 40
0.9226461237031887
 40
0.9338977133396407
 40
0.9450822838474531
 40
0.9561998396015792
 40
0.9672503849032493
 40
0.9782339239799742
 40
0.989150460985549
 40
1.0
 40
1.0
 40
1.0
 40
1.0
 10
2.613269831248063
 20
0.1877998562685465
 30
0.0
 10
2.613265054236468
 20
0.1941353375330682
 30
0.0
 10
2.613255520588379
 20
0.206779277717328
 30
0.0
 10
2.613241416373266
 20
0.2255855939879771
 30
0.0
 10
2.61322749486757
 20
0.2442141066001005
 30
0.0
 10
2.613213767815652
 20
0.2626498331295045
 30
0.0
 10
2.613200232090807
 20
0.2808880545636644
 30
0.0
 10
2.613186888525388
 20
0.2989216487977214
 30
0.0
 10
2.613173736897768
 20
0.316744461512234
 30
0.0
 10
2.613160777266905
 20
0.3343504072901669
 30
0.0
 10
2.613148009617062
 20
0.3517337071609749
 30
0.0
 10
2.613135433952385
 20
0.3688888233817456
 30
0.0
 10
2.613123050271723
 20
0.385810474585611
 30
0.0
 10
2.61311085857534
 20
0.4024936293177633
 30
0.0
 10
2.613098858863121
 20
0.4189335051142176
 30
0.0
 10
2.613087051135048
 20
0.4351255659040266
 30
0.0
 10
2.613075435391079
 20
0.4510655196654565
 30
0.0
 10
2.613064011631177
 20
0.4667493158310916
 30
0.0
 10
2.613052779855302
 20
0.4821731425850107
 30
0.0
 10
2.613041740063414
 20
0.4973334240225669
 30
0.0
 10
2.613030892255475
 20
0.5122268171891287
 30
0.0
 10
2.613020236431442
 20
0.5268502090018381
 30
0.0
 10
2.613009772591272
 20
0.5412007130615988
 30
0.0
 10
2.612999500734925
 20
0.5552756663615434
 30
0.0
 10
2.612989420862355
 20
0.5690726258983506
 30
0.0
 10
2.612979532973519
 20
0.582589365192631
 30
0.0
 10
2.61296983706837
 20
0.5958238707244872
 30
0.0
 10
2.612960333146863
 20
0.6087743382902523
 30
0.0
 10
2.612951021208952
 20
0.6214391692862873
 30
0.0
 10
2.612941901254591
 20
0.6338169669256066
 30
0.0
 10
2.612932973283725
 20
0.6459065323929616
 30
0.0
 10
2.61292423729631
 20
0.6577068609439249
 30
0.0
 10
2.612915693292293
 20
0.6692171379533401
 30
0.0
 10
2.612907341271622
 20
0.6804367349184332
 30
0.0
 10
2.612899181234245
 20
0.6913652054216969
 30
0.0
 10
2.612891213180108
 20
0.7020022810585798
 30
0.0
 10
2.612883437109157
 20
0.712347867334838
 30
0.0
 10
2.612875853021335
 20
0.7224020395383037
 30
0.0
 10
2.612868460916586
 20
0.7321650385896841
 30
0.0
 10
2.61286126079485
 20
0.7416372668768595
 30
0.0
 10
2.612854252656069
 20
0.7508192840770391
 30
0.0
 10
2.612847436500183
 20
0.7597118029709745
 30
0.0
 10
2.612840812327131
 20
0.7683156852533142
 30
0.0
 10
2.612834380136847
 20
0.7766319373430414
 30
0.0
 10
2.612828139929268
 20
0.7846617061978157
 30
0.0
 10
2.612822091704329
 20
0.7924062751358733
 30
0.0
 10
2.612816235461961
 20
0.7998670596690678
 30
0.0
 10
2.612810571202097
 20
0.8070456033504343
 30
0.0
 10
2.612805098924669
 20
0.8139435736395839
 30
0.0
 10
2.612799818629601
 20
0.8205627577890765
 30
0.0
 10
2.612794730316825
 20
0.8269050587548009
 30
0.0
 10
2.612789833986262
 20
0.8329724911332692
 30
0.0
 10
2.612785129637839
 20
0.8387671771285946
 30
0.0
 10
2.612780617271476
 20
0.8442913425518126
 30
0.0
 10
2.612776296887095
 20
0.8495473128550742
 30
0.0
 10
2.612772168484615
 20
0.8545375092031163
 30
0.0
 10
2.612768232063955
 20
0.8592644445843112
 30
0.0
 10
2.612764487625022
 20
0.8637307199634626
 30
0.0
 10
2.612760935167741
 20
0.8679390204783988
 30
0.0
 10
2.612757574692011
 20
0.8718921116823541
 30
0.0
 10
2.612754406197752
 20
0.8755928358338271
 30
0.0
 10
2.612751429684866
 20
0.8790441082361578
 30
0.0
 10
2.612748645153258
 20
0.8822489136265258
 30
0.0
 10
2.612746052602832
 20
0.8852103026230432
 30
0.0
 10
2.612743652033493
 20
0.8879313882047587
 30
0.0
 10
2.61274144344511
 20
0.8904153423243983
 30
0.0
 10
2.612739426837711
 20
0.8926653922904781
 30
0.0
 10
2.612737602210681
 20
0.8946848182687934
 30
0.0
 10
2.612735969565796
 20
0.8964769469140207
 30
0.0
 10
2.612734528895982
 20
0.8980451595933212
 30
0.0
 10
2.612733280226865
 20
0.8993928469121265
 30
0.0
 10
2.612732223463143
 20
0.9005235621503093
 30
0.0
 10
2.612731358956725
 20
0.9014404392625287
 30
0.0
 10
2.612730685405546
 20
0.9021483312309567
 30
0.0
 10
2.612730207624372
 20
0.9026458878368951
 30
0.0
 10
2.612729907807418
 20
0.9029548394678467
 30
0.0
 10
2.612729870351798
 20
0.9029928598971945
 30
0.0
 10
2.612729851681634
 20
0.9030118115966729
 30
0.0
  0
SPLINE
  5
A5
330
1F
100
AcDbEntity
  8
0
  6
Continuous
 62
     7
370
    25
100
AcDbSpline
210
0.0
220
0.0
230
1.0
 70
     8
 71
     3
 72
    19
 73
    15
 74
     0
 42
0.000000001
 43
0.00000001
 40
0.0
 40
0.0
 40
0.0
 40
0.0
 40
0.0729262107646239
 40
0.1477661725827495
 40
0.2245061587559282
 40
0.3031425961392068
 40
0.3836716763628448
 40
0.466089355979826
 40
0.5503913566005791
 40
0.636573165016767
 40
0.7246300333156539
 40
0.8145569789864192
 40
0.9063487850195074
 40
1.0
 40
1.0
 40
1.0
 40
1.0
 10
2.523558783084842
 20
0.7485625960702319
 30
0.0
 10
2.523557055201742
 20
0.7480250037319027
 30
0.0
 10
2.523553554091925
 20
0.7469357113991215
 30
0.0
 10
2.523526044380868
 20
0.7379714862076889
 30
0.0
 10
2.523482390400481
 20
0.7232036383590272
 30
0.0
 10
2.523420870507509
 20
0.7017755568375315
 30
0.0
 10
2.523341963274999
 20
0.6735784724011938
 30
0.0
 10
2.523245533682089
 20
0.6383900180878079
 30
0.0
 10
2.523131623290958
 20
0.596132534099834
 30
0.0
 10
2.523000201299448
 20
0.5468102398789437
 30
0.0
 10
2.522851347360366
 20
0.4905728934410511
 30
0.0
 10
2.52268476249428
 20
0.4275977997519863
 30
0.0
 10
2.52250159286951
 20
0.3585814870342768
 30
0.0
 10
2.522366831395879
 20
0.30862823916988
 30
0.0
 10
2.522298775042672
 20
0.2834011784309383
 30
0.0
  0
SPLINE
  5
A6
330
1F
100
AcDbEntity
  8
0
  6
Continuous
 62
     7
370
    25
100
AcDbSpline
210
0.0
220
0.0
230
1.0
 70
    24
 71
     3
 72
    22
 73
    18
 74
     0
 42
0.000000001
 43
0.00000001
 40
0.0
 40
0.0
 40
0.0
 40
0.0
 40
0.1250000000000001
 40
0.1250000000000001
 40
0.2500000000000001
 40
0.2500000000000001
 40
0.3750000000000003
 40
0.3750000000000003
 40
0.5000000000000004
 40
0.5000000000000004
 40
0.6250000000000004
 40
0.6250000000000004
 40
0.7500000000000003
 40
0.7500000000000003
 40
0.8750000000000001
 40
0.8750000000000001
 40
1.0
 40
1.0
 40
1.0
 40
1.0
 10
2.771653543307091
 20
-0.0000000000000003
 30
0.0
 10
2.771653543307091
 20
-0.0572686160810651
 30
0.0
 10
2.771653543307091
 20
-0.1145358160827429
 30
0.0
 10
2.771653543307091
 20
-0.226872247445487
 30
0.0
 10
2.771653543307091
 20
-0.2819387010669162
 30
0.0
 10
2.771653543307091
 20
-0.3877573055720008
 30
0.0
 10
2.771653543307091
 20
-0.4385068398821326
 30
0.0
 10
2.771653543307091
 20
-0.5337410679021845
 30
0.0
 10
2.771653543307091
 20
-0.578223406758147
 30
0.0
 10
2.771653543307091
 20
-0.6592134603183256
 30
0.0
 10
2.77165354330709
 20
-0.6957191723838676
 30
0.0
 10
2.771653543307092
 20
-0.759352649145601
 30
0.0
 10
2.771653543307091
 20
-0.7864788403786824
 30
0.0
 10
2.77165354330709
 20
-0.8303103415160813
 30
0.0
 10
2.77165354330709
 20
-0.8470145676001583
 30
0.0
 10
2.771653543307091
 20
-0.8693596731055022
 30
0.0
 10
2.771653543307091
 20
-0.8750000000000018
 30
0.0
 10
2.771653543307091
 20
-0.8750000000000001
 30
0.0
  0
SPLINE
  5
A8
330
1F
100
AcDbEntity
  8
0
  6
Continuous
 62
     7
370
    25
100
AcDbSpline
210
0.0
220
0.0
230
1.0
 70
     8
 71
     3
 72
    19
 73
    15
 74
     0
 42
0.000000001
 43
0.00000001
 40
0.0
 40
0.0
 40
0.0
 40
0.0
 40
0.0832841735238707
 40
0.166594922741385
 40
0.2499293103362303
 40
0.3332843995705889
 40
0.4166572542882231
 40
0.5000449389175452
 40
0.5834445184746766
 40
0.6668530585664969
 40
0.7502676253936826
 40
0.8336852857537418
 40
0.9171031070440411
 40
1.0
 40
1.0
 40
1.0
 40
1.0
 10
2.522306426617097
 20
-0.2833658526896553
 30
0.0
 10
2.522366014996174
 20
-0.3058276540240018
 30
0.0
 10
2.522485210768776
 20
-0.3507584241763318
 30
0.0
 10
2.522644612371271
 20
-0.4140422846213702
 30
0.0
 10
2.522789860106601
 20
-0.4735309597223518
 30
0.0
 10
2.522919557836931
 20
-0.5283903285561052
 30
0.0
 10
2.523034080291987
 20
-0.5781476236731474
 30
0.0
 10
2.523133325218843
 20
-0.6222945964996095
 30
0.0
 10
2.523217326771064
 20
-0.660405376933555
 30
0.0
 10
2.523286050607088
 20
-0.6920911612887339
 30
0.0
 10
2.523339599940964
 20
-0.7170894110806204
 30
0.0
 10
2.523377596232235
 20
-0.7349746103342981
 30
0.0
 10
2.523401401055596
 20
-0.7462211981321075
 30
0.0
 10
2.523404396651411
 20
-0.7475923627310771
 30
0.0
 10
2.52340588975794
 20
-0.7482757976604575
 30
0.0
  0
SPLINE
  5
A9
330
1F
100
AcDbEntity
  8
0
  6
Continuous
 62
     7
370
    25
100
AcDbSpline
210
0.0
220
0.0
230
1.0
 70
     8
 71
     3
 72
     8
 73
     4
 74
     0
 42
0.000000001
 43
0.00000001
 40
0.0
 40
0.0
 40
0.0
 40
0.0
 40
1.0
 40
1.0
 40
1.0
 40
1.0
 10
2.612084585572972
 20
-0.1876847109085089
 30
0.0
 10
2.582213777011973
 20
-0.229782791827782
 30
0.0
 10
2.552342968450975
 20
-0.2617205008026222
 30
0.0
 10
2.522472159889976
 20
-0.2834748334408524
 30
0.0
  0
SPLINE
  5
AA
330
1F
100
AcDbEntity
  8
0
  6
Continuous
 62
     7
370
    25
100
AcDbSpline
210
0.0
220
0.0
230
1.0
 70
     8
 71
     3
 72
    20
 73
    16
 74
     0
 42
0.000000001
 43
0.00000001
 40
0.0
 40
0.0
 40
0.0
 40
0.0
 40
0.0000609543350259
 40
0.0834394510068557
 40
0.1668088126120603
 40
0.2501690391506411
 40
0.3335201306225991
 40
0.4168620870279359
 40
0.5001949083666528
 40
0.5835185946387506
 40
0.6668331458442306
 40
0.7501385619830945
 40
0.8334348430553431
 40
0.9167219890609777
 40
0.9999999999999999
 40
0.9999999999999999
 40
0.9999999999999999
 40
0.9999999999999999
 10
2.612770091881675
 20
-0.903077270597439
 30
0.0
 10
2.612770077963497
 20
-0.9030786594230237
 30
0.0
 10
2.612751025583592
 20
-0.9049798013890474
 30
0.0
 10
2.612712931129446
 20
-0.8982014252780477
 30
0.0
 10
2.612655810098489
 20
-0.8818641169959498
 30
0.0
 10
2.612598688290847
 20
-0.8527609951199274
 30
0.0
 10
2.61254156669124
 20
-0.8130916825955588
 30
0.0
 10
2.612484445036055
 20
-0.7628799569326379
 30
0.0
 10
2.612427323395181
 20
-0.7029038673343311
 30
0.0
 10
2.612370201752628
 20
-0.6339023071275368
 30
0.0
 10
2.612313080102485
 20
-0.5567690880721408
 30
0.0
 10
2.612255958484378
 20
-0.4725103206058536
 30
0.0
 10
2.61219883674574
 20
-0.3821523491444732
 30
0.0
 10
2.612141715457113
 20
-0.2870760447464994
 30
0.0
 10
2.612103631389855
 20
-0.2208139517447417
 30
0.0
 10
2.612084590400562
 20
-0.1876847222764419
 30
0.0
  0
SPLINE
  5
AB
330
1F
100
AcDbEntity
  8
0
  6
Continuous
 62
     7
370
    25
100
AcDbSpline
210
0.0
220
0.0
230
1.0
 70
     8
 71
     3
 72
    10
 73
     6
 74
     0
 42
0.000000001
 43
0.00000001
 40
0.0
 40
0.0
 40
0.0
 40
0.0
 40
0.261604764460922
 40
0.5949136914487079
 40
0.9999999999999999
 40
0.9999999999999999
 40
0.9999999999999999
 40
0.9999999999999999
 10
2.521401251313288
 20
-0.2837145789854229
 30
0.0
 10
2.52217484570153
 20
-0.2814750707144306
 30
0.0
 10
2.523934071662652
 20
-0.2763822195376892
 30
0.0
 10
2.526895178823034
 20
-0.2677499599868384
 30
0.0
 10
2.529025025820475
 20
-0.2613318774350145
 30
0.0
 10
2.530193467620268
 20
-0.2578108940324094
 30
0.0
  0
SPLINE
  5
AC
330
1F
100
AcDbEntity
  8
0
  6
Continuous
 62
     7
370
    25
100
AcDbSpline
210
0.0
220
0.0
230
1.0
 70
     8
 71
     3
 72
    12
 73
     8
 74
     0
 42
0.000000001
 43
0.00000001
 40
0.0
 40
0.0
 40
0.0
 40
0.0
 40
0.2500000000000006
 40
0.2500000000000006
 40
0.5000000000000012
 40
0.5000000000000012
 40
1.0
 40
1.0
 40
1.0
 40
1.0
 10
2.617894811718625
 20
-0.1553962039323531
 30
0.0
 10
2.611369802861953
 20
-0.1673723502056333
 30
0.0
 10
2.604546871792946
 20
-0.1781327419440864
 30
0.0
 10
2.590493686898505
 20
-0.1979268861231322
 30
0.0
 10
2.583261522688815
 20
-0.2069504211137141
 30
0.0
 10
2.561126976681789
 20
-0.2319556282599086
 30
0.0
 10
2.545752644195113
 20
-0.2459255804096138
 30
0.0
 10
2.530207893376079
 20
-0.2578346320442059
 30
0.0
  0
SPLINE
  5
AD
330
1F
100
AcDbEntity
  8
0
  6
Continuous
 62
     7
370
    25
100
AcDbSpline
210
0.0
220
0.0
230
1.0
 70
     8
 71
     3
 72
     9
 73
     5
 74
     0
 42
0.000000001
 43
0.00000001
 40
0.0
 40
0.0
 40
0.0
 40
0.0
 40
0.5628074657372654
 40
1.0
 40
1.0
 40
1.0
 40
1.0
 10
2.298072059570177
 20
0.3390264434853402
 30
0.0
 10
2.298623634781085
 20
0.3393767051848798
 30
0.0
 10
2.299603677236961
 20
0.3399990524721193
 30
0.0
 10
2.300335866363705
 20
0.3401108797525753
 30
0.0
 10
2.300655973983586
 20
0.3401597698047176
 30
0.0
  0
SPLINE
  5
AE
330
1F
100
AcDbEntity
  8
0
  6
Continuous
 62
     7
370
    25
100
AcDbSpline
210
0.0
220
0.0
230
1.0
 70
     8
 71
     3
 72
     9
 73
     5
 74
     0
 42
0.000000001
 43
0.00000001
 40
0.0
 40
0.0
 40
0.0
 40
0.0
 40
0.4940445147123331
 40
1.0
 40
1.0
 40
1.0
 40
1.0
 10
2.296325847079256
 20
0.3393394792917217
 30
0.0
 10
2.296623312937493
 20
0.3393258545224914
 30
0.0
 10
2.297225416289273
 20
0.3392982765030531
 30
0.0
 10
2.297787613040223
 20
0.3391177711558709
 30
0.0
 10
2.298072059570177
 20
0.3390264434853402
 30
0.0
  0
SPLINE
  5
AF
330
1F
100
AcDbEntity
  8
0
  6
Continuous
 62
     7
370
    25
100
AcDbSpline
210
0.0
220
0.0
230
1.0
 70
     8
 71
     3
 72
     9
 73
     5
 74
     0
 42
0.000000001
 43
0.00000001
 40
0.0
 40
0.0
 40
0.0
 40
0.0
 40
0.4965902416577381
 40
1.0
 40
1.0
 40
1.0
 40
1.0
 10
2.296325847079257
 20
-0.3393394792917186
 30
0.0
 10
2.29662494127309
 20
-0.3393260839558764
 30
0.0
 10
2.297227237026698
 20
-0.3392991093302826
 30
0.0
 10
2.297789174671946
 20
-0.3391177443750863
 30
0.0
 10
2.298072059566145
 20
-0.3390264434868194
 30
0.0
  0
SPLINE
  5
B0
330
1F
100
AcDbEntity
  8
0
  6
Continuous
 62
     7
370
    25
100
AcDbSpline
210
0.0
220
0.0
230
1.0
 70
     8
 71
     3
 72
     9
 73
     5
 74
     0
 42
0.000000001
 43
0.00000001
 40
0.0
 40
0.0
 40
0.0
 40
0.0
 40
0.5301249795507068
 40
1.0
 40
1.0
 40
1.0
 40
1.0
 10
2.298072059566147
 20
-0.3390264434868188
 30
0.0
 10
2.298594286416635
 20
-0.3393620348775495
 30
0.0
 10
2.299579387799579
 20
-0.3399950769028755
 30
0.0
 10
2.300308760516667
 20
-0.3401099952996586
 30
0.0
 10
2.300651474537024
 20
-0.3401639925836971
 30
0.0
  0
SPLINE
  5
B1
330
1F
100
AcDbEntity
  8
0
  6
Continuous
 62
     7
370
    25
100
AcDbSpline
210
0.0
220
0.0
230
1.0
 70
    24
 71
     3
 72
    21
 73
    17
 74
     0
 42
0.000000001
 43
0.00000001
 40
0.0
 40
0.0
 40
0.0
 40
0.0
 40
0.0498448953267051
 40
0.0998633218258322
 40
0.1498817483247743
 40
0.1999001748235419
 40
0.2499186013221444
 40
0.3332609789540958
 40
0.4166033565856663
 40
0.4999457342169038
 40
0.5832881118478557
 40
0.6666304894785705
 40
0.7499728671090942
 40
0.8333152447394752
 40
0.9166576223697614
 40
1.0
 40
1.0
 40
1.0
 40
1.0
 10
2.300655973614637
 20
-0.9030063321827672
 30
0.0
 10
2.300655973615338
 20
-0.9027042617190972
 30
0.0
 10
2.300655973616744
 20
-0.902099069156653
 30
0.0
 10
2.300655973618718
 20
-0.8971817981259181
 30
0.0
 10
2.300655973620594
 20
-0.8893413013741587
 30
0.0
 10
2.300655973622362
 20
-0.8783193243811565
 30
0.0
 10
2.300655973624391
 20
-0.8611066435806095
 30
0.0
 10
2.300655973626585
 20
-0.8349094105513158
 30
0.0
 10
2.300655973628816
 20
-0.796558357961832
 30
0.0
 10
2.300655973630751
 20
-0.7504481231939705
 30
0.0
 10
2.300655973632387
 20
-0.6970311766729022
 30
0.0
 10
2.300655973633727
 20
-0.6368214244884997
 30
0.0
 10
2.300655973634769
 20
-0.5704270124305413
 30
0.0
 10
2.30065597363551
 20
-0.4984136895369145
 30
0.0
 10
2.300655973635972
 20
-0.4217843454978643
 30
0.0
 10
2.300655973636029
 20
-0.3673679616684689
 30
0.0
 10
2.300655973636058
 20
-0.3401597697537789
 30
0.0
  0
SPLINE
  5
B5
330
1F
100
AcDbEntity
  8
0
  6
Continuous
 62
     7
370
    25
100
AcDbSpline
210
0.0
220
0.0
230
1.0
 70
     8
 71
     3
 72
     8
 73
     4
 74
     0
 42
0.000000001
 43
0.00000001
 40
0.0
 40
0.0
 40
0.0
 40
0.0
 40
1.0
 40
1.0
 40
1.0
 40
1.0
 10
2.289878964650306
 20
-0.3248050078402872
 30
0.0
 10
2.29261353716555
 20
-0.3295421482814156
 30
0.0
 10
2.295344571840875
 20
-0.3342826295374768
 30
0.0
 10
2.298072059566147
 20
-0.3390264434868188
 30
0.0
  0
SPLINE
  5
B7
330
1F
100
AcDbEntity
  8
0
  6
Continuous
 62
     7
370
    25
100
AcDbSpline
210
0.0
220
0.0
230
1.0
 70
     8
 71
     3
 72
     9
 73
     5
 74
     0
 42
0.000000001
 43
0.00000001
 40
0.0
 40
0.0
 40
0.0
 40
0.0
 40
0.4252118175780184
 40
1.0
 40
1.0
 40
1.0
 40
1.0
 10
2.329932994508944
 20
-0.3401274724076838
 30
0.0
 10
2.328376337282165
 20
-0.3379544028590858
 30
0.0
 10
2.324715438966483
 20
-0.3328438451117123
 30
0.0
 10
2.321011392907137
 20
-0.3277410158655498
 30
0.0
 10
2.31888235100508
 20
-0.3248079699179384
 30
0.0
  0
SPLINE
  5
B8
330
1F
100
AcDbEntity
  8
0
  6
Continuous
 62
     7
370
    25
100
AcDbSpline
210
0.0
220
0.0
230
1.0
 70
     8
 71
     3
 72
     9
 73
     5
 74
     0
 42
0.000000001
 43
0.00000001
 40
0.0
 40
0.0
 40
0.0
 40
0.0
 40
0.4930807987584032
 40
1.0
 40
1.0
 40
1.0
 40
1.0
 10
2.32993414814527
 20
-0.3401264033395178
 30
0.0
 10
2.325136015551338
 20
-0.3401339943938775
 30
0.0
 10
2.315405089897746
 20
-0.3401493895469209
 30
0.0
 10
2.305617500485509
 20
-0.3401562779062702
 30
0.0
 10
2.300655983478578
 20
-0.3401597697478894
 30
0.0
  0
SPLINE
  5
BE
330
1F
100
AcDbEntity
  8
0
  6
Continuous
 62
     7
370
    25
100
AcDbSpline
210
0.0
220
0.0
230
1.0
 70
     8
 71
     3
 72
     8
 73
     4
 74
     0
 42
0.000000001
 43
0.00000001
 40
0.0
 40
0.0
 40
0.0
 40
0.0
 40
0.0005899402028904
 40
0.0005899402028904
 40
0.0005899402028904
 40
0.0005899402028904
 10
1.945661413682066
 20
0.3398532814667228
 30
0.0
 10
1.950920529292478
 20
0.3398745499000892
 30
0.0
 10
1.956182728177527
 20
0.3398903453638372
 30
0.0
 10
1.961447872473075
 20
0.3399008916820273
 30
0.0
  0
SPLINE
  5
C3
330
1F
100
AcDbEntity
  8
0
  6
Continuous
 62
     7
370
    25
100
AcDbSpline
210
0.0
220
0.0
230
1.0
 70
     8
 71
     3
 72
     8
 73
     4
 74
     0
 42
0.000000001
 43
0.00000001
 40
0.0000000004994051
 40
0.0000000004994051
 40
0.0000000004994051
 40
0.0000000004994051
 40
0.0005876376183077
 40
0.0005876376183077
 40
0.0005876376183077
 40
0.0005876376183077
 10
1.961447875607228
 20
-0.3399008916883033
 30
0.0
 10
1.956203286036722
 20
-0.3398903865442199
 30
0.0
 10
1.950961618937637
 20
-0.3398746731509005
 30
0.0
 10
1.945723010549208
 20
-0.3398535303202624
 30
0.0
  0
SPLINE
  5
C7
330
1F
100
AcDbEntity
  8
0
  6
Continuous
 62
     7
370
    25
100
AcDbSpline
210
0.0
220
0.0
230
1.0
 70
     8
 71
     3
 72
     9
 73
     5
 74
     0
 42
0.000000001
 43
0.00000001
 40
0.0
 40
0.0
 40
0.0
 40
0.0
 40
0.507095599995494
 40
1.0
 40
1.0
 40
1.0
 40
1.0
 10
2.300655973500031
 20
0.3401597696995508
 30
0.0
 10
2.305629755357326
 20
0.3401562344575625
 30
0.0
 10
2.31543812651523
 20
0.3401492629082366
 30
0.0
 10
2.325189357044186
 20
0.3401349827523028
 30
0.0
 10
2.329995781477367
 20
0.3401279440006103
 30
0.0
  0
SPLINE
  5
C8
330
1F
100
AcDbEntity
  8
0
  6
Continuous
 62
     7
370
    25
100
AcDbSpline
210
0.0
220
0.0
230
1.0
 70
     8
 71
     3
 72
     8
 73
     4
 74
     0
 42
0.000000001
 43
0.00000001
 40
0.0
 40
0.0
 40
0.0
 40
0.0
 40
1.0
 40
1.0
 40
1.0
 40
1.0
 10
2.318880046280076
 20
0.3248013086372387
 30
0.0
 10
2.32259104190088
 20
0.3299048311573696
 30
0.0
 10
2.326296201604972
 20
0.3350137957747498
 30
0.0
 10
2.329995506389828
 20
0.3401281853418918
 30
0.0
  0
SPLINE
  5
CA
330
1F
100
AcDbEntity
  8
0
  6
Continuous
 62
     7
370
    25
100
AcDbSpline
210
0.0
220
0.0
230
1.0
 70
     8
 71
     3
 72
    20
 73
    16
 74
     0
 42
0.000000001
 43
0.00000001
 40
0.0
 40
0.0
 40
0.0
 40
0.0
 40
0.082031257801667
 40
0.1641994975665099
 40
0.2465021577249374
 40
0.3289366662325532
 40
0.4115004405733486
 40
0.4941908877628467
 40
0.5770054043512324
 40
0.6599413764264398
 40
0.7429961796172228
 40
0.8261671790961925
 40
0.9094517295828349
 40
0.9928471753465014
 40
1.0
 40
1.0
 40
1.0
 40
1.0
 10
2.390988095052931
 20
0.3346887623247795
 30
0.0
 10
2.390932680760979
 20
0.3546800832931397
 30
0.0
 10
2.390821759642125
 20
0.3946961082409967
 30
0.0
 10
2.390673238404088
 20
0.4507780930465952
 30
0.0
 10
2.390537601071753
 20
0.5034180373319661
 30
0.0
 10
2.390416146505979
 20
0.5519055806281363
 30
0.0
 10
2.3903085264662
 20
0.5958805400460163
 30
0.0
 10
2.390214832109531
 20
0.6349342219917051
 30
0.0
 10
2.390135047846691
 20
0.6687147404170429
 30
0.0
 10
2.390069144604531
 20
0.6969277012060949
 30
0.0
 10
2.390017254590221
 20
0.7192482103630757
 30
0.0
 10
2.38997887705623
 20
0.7356914435552517
 30
0.0
 10
2.389955886371418
 20
0.745231962711383
 30
0.0
 10
2.389945732522967
 20
0.74922549557869
 30
0.0
 10
2.389947230266297
 20
0.7481872349514539
 30
0.0
 10
2.389947348579935
 20
0.7481052179656292
 30
0.0
  0
SPLINE
  5
CB
330
1F
100
AcDbEntity
  8
0
  6
Continuous
 62
     7
370
    25
100
AcDbSpline
210
0.0
220
0.0
230
1.0
 70
     8
 71
     3
 72
     8
 73
     4
 74
     0
 42
0.000000001
 43
0.00000001
 40
0.0
 40
0.0
 40
0.0
 40
0.0
 40
1.0
 40
1.0
 40
1.0
 40
1.0
 10
2.34382197522322
 20
0.3397970897434576
 30
0.0
 10
2.359532102432036
 20
0.3393162424413101
 30
0.0
 10
2.375242229640853
 20
0.3376802291108159
 30
0.0
 10
2.390952356849669
 20
0.3349115550727374
 30
0.0
  0
SPLINE
  5
CC
330
1F
100
AcDbEntity
  8
0
  6
Continuous
 62
     7
370
    25
100
AcDbSpline
210
0.0
220
0.0
230
1.0
 70
     8
 71
     3
 72
     8
 73
     4
 74
     0
 42
0.000000001
 43
0.00000001
 40
0.0
 40
0.0
 40
0.0
 40
0.0
 40
1.0
 40
1.0
 40
1.0
 40
1.0
 10
2.329995781477367
 20
0.3401279440006103
 30
0.0
 10
2.334603666000145
 20
0.3401200094855678
 30
0.0
 10
2.339211550522923
 20
0.3400143611553093
 30
0.0
 10
2.343819435045702
 20
0.3398114875776684
 30
0.0
  0
SPLINE
  5
CD
330
1F
100
AcDbEntity
  8
0
  6
Continuous
 62
     7
370
    25
100
AcDbSpline
210
0.0
220
0.0
230
1.0
 70
     8
 71
     3
 72
     8
 73
     4
 74
     0
 42
0.000000001
 43
0.00000001
 40
0.0
 40
0.0
 40
0.0
 40
0.0
 40
1.0
 40
1.0
 40
1.0
 40
1.0
 10
2.343819103435857
 20
-0.3398133706051334
 30
0.0
 10
2.339190785005661
 20
-0.3400160091821113
 30
0.0
 10
2.334562466575465
 20
-0.340120518531996
 30
0.0
 10
2.32993414814527
 20
-0.3401264033395178
 30
0.0
  0
SPLINE
  5
CE
330
1F
100
AcDbEntity
  8
0
  6
Continuous
 62
     7
370
    25
100
AcDbSpline
210
0.0
220
0.0
230
1.0
 70
     8
 71
     3
 72
     8
 73
     4
 74
     0
 42
0.000000001
 43
0.00000001
 40
0.0
 40
0.0
 40
0.0
 40
0.0
 40
1.0
 40
1.0
 40
1.0
 40
1.0
 10
2.390836421072656
 20
-0.3350795312408619
 30
0.0
 10
2.375164913225586
 20
-0.3377931947226051
 30
0.0
 10
2.359493405378515
 20
-0.3393733717713726
 30
0.0
 10
2.343821897531444
 20
-0.3397975335755594
 30
0.0
  0
SPLINE
  5
CF
330
1F
100
AcDbEntity
  8
0
  6
Continuous
 62
     7
370
    25
100
AcDbSpline
210
0.0
220
0.0
230
1.0
 70
     8
 71
     3
 72
    60
 73
    56
 74
     0
 42
0.000000001
 43
0.00000001
 40
0.0
 40
0.0
 40
0.0
 40
0.0
 40
0.018881252084079
 40
0.0377624750737166
 40
0.0566436405272945
 40
0.0755247200032005
 40
0.0944056850598288
 40
0.1132865072555815
 40
0.1321671581488694
 40
0.151047609298113
 40
0.1699278322617456
 40
0.1888077985982118
 40
0.2076874798659705
 40
0.2265668476234954
 40
0.2454458734292763
 40
0.2643245288418208
 40
0.2832027854196545
 40
0.3020806147213235
 40
0.3209579883053939
 40
0.3398348777304553
 40
0.3587112545551195
 40
0.377587090338023
 40
0.3964623566378291
 40
0.4153370250132271
 40
0.4342110670229349
 40
0.4530844542256995
 40
0.4719571581802999
 40
0.4908291504455447
 40
0.5097004025802767
 40
0.5285708861433743
 40
0.5474405726937481
 40
0.5663094337903488
 40
0.5851774409921627
 40
0.6040445658582163
 40
0.6229107799475757
 40
0.6417760548193489
 40
0.6606403620326871
 40
0.6795036731467847
 40
0.6983659597208808
 40
0.7172271933142634
 40
0.736087345486264
 40
0.7549463877962669
 40
0.773804291803704
 40
0.7926610290680601
 40
0.8115165711488713
 40
0.8303708896057272
 40
0.8492239559982734
 40
0.8680757418862115
 40
0.8869262188292989
 40
0.9057753583873541
 40
0.9246231321202535
 40
0.9434695115879347
 40
0.9623144683504
 40
0.9811579739677119
 40
1.0
 40
1.0
 40
1.0
 40
1.0
 10
2.389936093578164
 20
-0.748374107289079
 30
0.0
 10
2.38993615651365
 20
-0.7483426572579607
 30
0.0
 10
2.389936282384525
 20
-0.7482797572441862
 30
0.0
 10
2.389937300279431
 20
-0.7477710657737145
 30
0.0
 10
2.389938925109453
 20
-0.7469592916875767
 30
0.0
 10
2.389941216400238
 20
-0.7458150431469649
 30
0.0
 10
2.389944158202021
 20
-0.7443467985520891
 30
0.0
 10
2.389947754788497
 20
-0.7425530719358235
 30
0.0
 10
2.389952005014545
 20
-0.7404352297750795
 30
0.0
 10
2.389956909186993
 20
-0.737994056331472
 30
0.0
 10
2.389962467223631
 20
-0.7352306734395831
 30
0.0
 10
2.389968679146484
 20
-0.7321462934562094
 30
0.0
 10
2.389975544949653
 20
-0.7287422847778078
 30
0.0
 10
2.389983064634715
 20
-0.725020153526005
 30
0.0
 10
2.389991238201251
 20
-0.7209815476149095
 30
0.0
 10
2.390000065649371
 20
-0.7166282547412226
 30
0.0
 10
2.390009546979045
 20
-0.711962201922999
 30
0.0
 10
2.390019682190282
 20
-0.7069854545441986
 30
0.0
 10
2.39003047128308
 20
-0.7017002154528984
 30
0.0
 10
2.390041914257438
 20
-0.6961088239668903
 30
0.0
 10
2.390054011113356
 20
-0.6902137548264154
 30
0.0
 10
2.390066761850834
 20
-0.6840176170839843
 30
0.0
 10
2.390080166469872
 20
-0.6775231529346084
 30
0.0
 10
2.390094224970471
 20
-0.6707332364862083
 30
0.0
 10
2.390108937352629
 20
-0.6636508724709755
 30
0.0
 10
2.390124303616346
 20
-0.6562791948982005
 30
0.0
 10
2.390140323761623
 20
-0.6486214656492107
 30
0.0
 10
2.390156997788459
 20
-0.6406810730150324
 30
0.0
 10
2.390174325696853
 20
-0.6324615301774607
 30
0.0
 10
2.390192307486807
 20
-0.6239664736342101
 30
0.0
 10
2.390210943158318
 20
-0.6151996615688732
 30
0.0
 10
2.390230232711389
 20
-0.6061649721664152
 30
0.0
 10
2.390250176146015
 20
-0.5968664018749771
 30
0.0
 10
2.390270773462201
 20
-0.5873080636147748
 30
0.0
 10
2.390292024659942
 20
-0.5774941849348996
 30
0.0
 10
2.390313929739242
 20
-0.5674291061188678
 30
0.0
 10
2.390336488700097
 20
-0.5571172782397603
 30
0.0
 10
2.390359701542511
 20
-0.5465632611658736
 30
0.0
 10
2.390383568266478
 20
-0.5357717215176785
 30
0.0
 10
2.390408088872003
 20
-0.5247474305773658
 30
0.0
 10
2.390433263359084
 20
-0.5134952621506602
 30
0.0
 10
2.390459091727714
 20
-0.5020201903865615
 30
0.0
 10
2.390485573977922
 20
-0.4903272875385161
 30
0.0
 10
2.390512710109595
 20
-0.4784217217332872
 30
0.0
 10
2.390540500123156
 20
-0.4663087545050324
 30
0.0
 10
2.39056894401702
 20
-0.4539937390043505
 30
0.0
 10
2.390598041797116
 20
-0.4414821154923904
 30
0.0
 10
2.390627793441301
 20
-0.4287794167750867
 30
0.0
 10
2.390658199032205
 20
-0.4158912363581644
 30
0.0
 10
2.390689258261478
 20
-0.4028233355348982
 30
0.0
 10
2.390720972279786
 20
-0.389581231849598
 30
0.0
 10
2.390753336793237
 20
-0.3761717227126754
 30
0.0
 10
2.390786367825062
 20
-0.3625971875692013
 30
0.0
 10
2.390820005582605
 20
-0.3488768376596483
 30
0.0
 10
2.390842984900615
 20
-0.339603515450774
 30
0.0
 10
2.39085447410852
 20
-0.3349670363879328
 30
0.0
  0
SPLINE
  5
D0
330
1F
100
AcDbEntity
  8
0
  6
Continuous
 62
     7
370
    25
100
AcDbSpline
210
0.0
220
0.0
230
1.0
 70
     8
 71
     3
 72
     8
 73
     4
 74
     0
 42
0.000000001
 43
0.00000001
 40
0.0
 40
0.0
 40
0.0
 40
0.0
 40
1.0
 40
1.0
 40
1.0
 40
1.0
 10
2.33269242855135
 20
-0.3247888112192828
 30
0.0
 10
2.336392140891546
 20
-0.3298054629719679
 30
0.0
 10
2.340098213972484
 20
-0.3348161394561531
 30
0.0
 10
2.343810614765579
 20
-0.3398208204202176
 30
0.0
  0
SPLINE
  5
D2
330
1F
100
AcDbEntity
  8
0
  6
Continuous
 62
     7
370
    25
100
AcDbSpline
210
0.0
220
0.0
230
1.0
 70
     8
 71
     3
 72
     8
 73
     4
 74
     0
 42
0.000000001
 43
0.00000001
 40
0.0
 40
0.0
 40
0.0
 40
0.0
 40
1.0
 40
1.0
 40
1.0
 40
1.0
 10
2.332696887412809
 20
0.3247847656641
 30
0.0
 10
2.336386805120347
 20
0.3298101544922153
 30
0.0
 10
2.340098618697476
 20
0.3348151329917101
 30
0.0
 10
2.343831990164637
 20
0.339799461925647
 30
0.0
  0
SPLINE
  5
D4
330
1F
100
AcDbEntity
  8
0
  6
Continuous
 62
     7
370
    25
100
AcDbSpline
210
0.0
220
0.0
230
1.0
 70
     8
 71
     3
 72
     9
 73
     5
 74
     0
 42
0.000000001
 43
0.00000001
 40
0.0
 40
0.0
 40
0.0
 40
0.0
 40
0.5109529105162575
 40
1.0
 40
1.0
 40
1.0
 40
1.0
 10
2.391962400471906
 20
-0.3351734921256137
 30
0.0
 10
2.390383173151074
 20
-0.3327891669929697
 30
0.0
 10
2.387292423909161
 20
-0.3281227386713561
 30
0.0
 10
2.384167794490126
 20
-0.3233351920114433
 30
0.0
 10
2.382639703567032
 20
-0.3209938562516453
 30
0.0
  0
SPLINE
  5
D5
330
1F
100
AcDbEntity
  8
0
  6
Continuous
 62
     7
370
    25
100
AcDbSpline
210
0.0
220
0.0
230
1.0
 70
     8
 71
     3
 72
     8
 73
     4
 74
     0
 42
0.000000001
 43
0.00000001
 40
0.0
 40
0.0
 40
0.0
 40
0.0
 40
1.0
 40
1.0
 40
1.0
 40
1.0
 10
2.38266751763887
 20
-0.3209330937635448
 30
0.0
 10
2.365888523223592
 20
-0.3235466847521327
 30
0.0
 10
2.34915325515198
 20
-0.3248014748606457
 30
0.0
 10
2.332710213775788
 20
-0.3248031479249768
 30
0.0
  0
SPLINE
  5
D6
330
1F
100
AcDbEntity
  8
0
  6
Continuous
 62
     7
370
    25
100
AcDbSpline
210
0.0
220
0.0
230
1.0
 70
     8
 71
     3
 72
    10
 73
     6
 74
     0
 42
0.000000001
 43
0.00000001
 40
0.0
 40
0.0
 40
0.0
 40
0.0
 40
0.5051714597310341
 40
0.782909263278556
 40
1.0
 40
1.0
 40
1.0
 40
1.0
 10
2.391822631096267
 20
0.3351369424415629
 30
0.0
 10
2.390277658035173
 20
0.3327500562834754
 30
0.0
 10
2.387883275498817
 20
0.329050885937326
 30
0.0
 10
2.384848195869496
 20
0.3243170202509418
 30
0.0
 10
2.383307525336322
 20
0.3219632894647164
 30
0.0
 10
2.382631603731416
 20
0.3209306627893271
 30
0.0
  0
SPLINE
  5
D7
330
1F
100
AcDbEntity
  8
0
  6
Continuous
 62
     7
370
    25
100
AcDbSpline
210
0.0
220
0.0
230
1.0
 70
     8
 71
     3
 72
     8
 73
     4
 74
     0
 42
0.000000001
 43
0.00000001
 40
0.0
 40
0.0
 40
0.0
 40
0.0
 40
1.0
 40
1.0
 40
1.0
 40
1.0
 10
2.332710214163535
 20
0.3248031479385493
 30
0.0
 10
2.349150431336402
 20
0.3248014751419521
 30
0.0
 10
2.365882778948865
 20
0.3235471171809705
 30
0.0
 10
2.382658884738916
 20
0.3209344383539017
 30
0.0
  0
SPLINE
  5
D8
330
1F
100
AcDbEntity
  8
0
  6
Continuous
 62
     7
370
    25
100
AcDbSpline
210
0.0
220
0.0
230
1.0
 70
     8
 71
     3
 72
    16
 73
    12
 74
     0
 42
0.000000001
 43
0.00000001
 40
0.0
 40
0.0
 40
0.0
 40
0.0
 40
0.0864313505858103
 40
0.1715498469635194
 40
0.2554276543543025
 40
0.3381401858844213
 40
0.4197660848771013
 40
0.5003871750057571
 40
0.6556726580109933
 40
0.8220598564263116
 40
1.0
 40
1.0
 40
1.0
 40
1.0
 10
2.521393721997448
 20
-0.2832402452989569
 30
0.0
 10
2.517976865751011
 20
-0.2853169841799309
 30
0.0
 10
2.511195053801992
 20
-0.2894389171915018
 30
0.0
 10
2.500862955930097
 20
-0.2952092473887319
 30
0.0
 10
2.490515477813118
 20
-0.3006170980186454
 30
0.0
 10
2.480136125481528
 20
-0.3056410911793769
 30
0.0
 10
2.469728722805808
 20
-0.3102898697816754
 30
0.0
 10
2.456034286993458
 20
-0.3159058861988016
 30
0.0
 10
2.43830577520297
 20
-0.322196635346456
 30
0.0
 10
2.415863526565902
 20
-0.3289165844921347
 30
0.0
 10
2.400125263238675
 20
-0.3326925520952012
 30
0.0
 10
2.391992104774204
 20
-0.33464388193598
 30
0.0
  0
SPLINE
  5
D9
330
1F
100
AcDbEntity
  8
0
  6
Continuous
 62
     7
370
    25
100
AcDbSpline
210
0.0
220
0.0
230
1.0
 70
     8
 71
     3
 72
    12
 73
     8
 74
     0
 42
0.000000001
 43
0.00000001
 40
0.0
 40
0.0
 40
0.0
 40
0.0
 40
0.5
 40
0.5
 40
0.75
 40
0.75
 40
1.0
 40
1.0
 40
1.0
 40
1.0
 10
2.53017114252209
 20
-0.2578627832329293
 30
0.0
 10
2.508850910356819
 20
-0.2741916903814101
 30
0.0
 10
2.485812717226902
 20
-0.2877025197086318
 30
0.0
 10
2.448683479691692
 20
-0.3036793684183928
 30
0.0
 10
2.435798132300333
 20
-0.3083008361544279
 30
0.0
 10
2.409572156770879
 20
-0.3158646857317967
 30
0.0
 10
2.396226853323912
 20
-0.3188219775613644
 30
0.0
 10
2.382645292812299
 20
-0.32093655483992
 30
0.0
  0
SPLINE
  5
DA
330
1F
100
AcDbEntity
  8
0
  6
Continuous
 62
     7
370
    25
100
AcDbSpline
210
0.0
220
0.0
230
1.0
 70
     8
 71
     3
 72
    15
 73
    11
 74
     0
 42
0.000000001
 43
0.00000001
 40
0.0
 40
0.0
 40
0.0
 40
0.0
 40
0.1070259650721566
 40
0.210628939854664
 40
0.3109084488248193
 40
0.4079742398384998
 40
0.5019473208708466
 40
0.6632532415441208
 40
0.8290708208647606
 40
1.0
 40
1.0
 40
1.0
 40
1.0
 10
2.391992104774212
 20
0.3344695332784389
 30
0.0
 10
2.396895004218377
 20
0.3333484630751048
 30
0.0
 10
2.406543994642732
 20
0.3311421776351955
 30
0.0
 10
2.420643115896252
 20
0.3273992509579745
 30
0.0
 10
2.434162139148587
 20
0.3233996941994773
 30
0.0
 10
2.447092463481297
 20
0.3191093076891247
 30
0.0
 10
2.462513101980749
 20
0.3133941236816976
 30
0.0
 10
2.480517236967926
 20
0.3056383891918538
 30
0.0
 10
2.501197077494091
 20
0.295299454579362
 30
0.0
 10
2.514577786597735
 20
0.2873272128924689
 30
0.0
 10
2.52136969644067
 20
0.2832805852911911
 30
0.0
  0
SPLINE
  5
DB
330
1F
100
AcDbEntity
  8
0
  6
Continuous
 62
     7
370
    25
100
AcDbSpline
210
0.0
220
0.0
230
1.0
 70
     8
 71
     3
 72
    12
 73
     8
 74
     0
 42
0.000000001
 43
0.00000001
 40
0.0
 40
0.0
 40
0.0
 40
0.0
 40
0.4999999999999998
 40
0.4999999999999998
 40
0.7499999999999999
 40
0.7499999999999999
 40
1.0
 40
1.0
 40
1.0
 40
1.0
 10
2.38264083110039
 20
0.3209372494731484
 30
0.0
 10
2.409809693063793
 20
0.3167075879425262
 30
0.0
 10
2.435749759542213
 20
0.309191349259122
 30
0.0
 10
2.472908065223335
 20
0.2932813013983052
 30
0.0
 10
2.485061013237357
 20
0.2871554915209284
 30
0.0
 10
2.508350845779132
 20
0.2735285568496792
 30
0.0
 10
2.519503059617471
 20
0.26603301029119
 30
0.0
 10
2.530166141023139
 20
0.2578666137433432
 30
0.0
  0
SPLINE
  5
DC
330
1F
100
AcDbEntity
  8
0
  6
Continuous
 62
     7
370
    25
100
AcDbSpline
210
0.0
220
0.0
230
1.0
 70
     8
 71
     3
 72
    65
 73
    61
 74
     0
 42
0.000000001
 43
0.00000001
 40
0.0
 40
0.0
 40
0.0
 40
0.0
 40
0.0195320937703986
 40
0.0389838109434554
 40
0.0583551515383391
 40
0.0776461155751911
 40
0.0968567030751315
 40
0.1159869140602753
 40
0.1350367485537493
 40
0.154006206579702
 40
0.1728952881633192
 40
0.1917039933308382
 40
0.2104323221095651
 40
0.2290802745278878
 40
0.2476478506152906
 40
0.2661350504023741
 40
0.284541873920866
 40
0.3028683212036449
 40
0.3211143922847493
 40
0.339280087199402
 40
0.3573654059840212
 40
0.3753703486762463
 40
0.3932949153149504
 40
0.4111391059402618
 40
0.4289029205935826
 40
0.4465863593176086
 40
0.464189422156352
 40
0.4817121091551567
 40
0.4991544203607275
 40
0.5165163558211443
 40
0.5337979155858875
 40
0.5509990997058634
 40
0.5681199082334212
 40
0.5851603412223838
 40
0.6021203987280673
 40
0.6190000808073086
 40
0.6357993875184891
 40
0.652518318921564
 40
0.6691568750780845
 40
0.6857150560512304
 40
0.7021928619058347
 40
0.7185902927084136
 40
0.7349073485271975
 40
0.751144029432158
 40
0.7673003354950417
 40
0.7833762667894036
 40
0.799371823390635
 40
0.8152870053759999
 40
0.8311218128246683
 40
0.8468762458177542
 40
0.8625503044383489
 40
0.878143988771556
 40
0.8936572989045366
 40
0.9090902349265405
 40
0.92444279692895
 40
0.9397149850053211
 40
0.9549067992514264
 40
0.9700182397652957
 40
0.9850493066472592
 40
0.9999999999999999
 40
0.9999999999999999
 40
0.9999999999999999
 40
0.9999999999999999
 10
2.52136969644067
 20
0.2832805852911911
 30
0.0
 10
2.521345230571864
 20
0.2885744900512894
 30
0.0
 10
2.521296399513846
 20
0.2991405146027944
 30
0.0
 10
2.521224533299961
 20
0.3147583478043854
 30
0.0
 10
2.521153871100434
 20
0.330157188712445
 30
0.0
 10
2.521084500093873
 20
0.345317461220675
 30
0.0
 10
2.521016397065454
 20
0.3602371102414396
 30
0.0
 10
2.520949568196559
 20
0.3749097674159382
 30
0.0
 10
2.52088401184097
 20
0.3893305628007508
 30
0.0
 10
2.520819728436736
 20
0.4034945746363513
 30
0.0
 10
2.520756717866937
 20
0.4173972391599469
 30
0.0
 10
2.520694980162404
 20
0.4310342382731663
 30
0.0
 10
2.520634515314637
 20
0.4444015260017741
 30
0.0
 10
2.520575323325594
 20
0.4574953177768506
 30
0.0
 10
2.520517404194443
 20
0.4703120894009148
 30
0.0
 10
2.520460757921096
 20
0.4828485732324064
 30
0.0
 10
2.520405384505253
 20
0.4951017549181356
 30
0.0
 10
2.520351283946672
 20
0.5070688697976526
 30
0.0
 10
2.520298456245087
 20
0.5187473992230272
 30
0.0
 10
2.520246901400231
 20
0.5301350667393379
 30
0.0
 10
2.520196619411831
 20
0.5412298341504135
 30
0.0
 10
2.520147610279614
 20
0.5520298974731104
 30
0.0
 10
2.520099874003299
 20
0.562533682788903
 30
0.0
 10
2.520053410582596
 20
0.5727398419999458
 30
0.0
 10
2.520008220017217
 20
0.5826472484970069
 30
0.0
 10
2.519964302306864
 20
0.5922549927464333
 30
0.0
 10
2.519921657451234
 20
0.6015623778031891
 30
0.0
 10
2.519880285450021
 20
0.6105689147568409
 30
0.0
 10
2.519840186302911
 20
0.6192743181172227
 30
0.0
 10
2.519801360009583
 20
0.6276785011463464
 30
0.0
 10
2.519763806569716
 20
0.6357815711429708
 30
0.0
 10
2.519727525982972
 20
0.6435838246860687
 30
0.0
 10
2.519692518249022
 20
0.6510857428432881
 30
0.0
 10
2.519658783367514
 20
0.6582879863503107
 30
0.0
 10
2.519626321338102
 20
0.6651913907668748
 30
0.0
 10
2.519595132160429
 20
0.6717969616150236
 30
0.0
 10
2.519565215834129
 20
0.6781058695050198
 30
0.0
 10
2.519536572358832
 20
0.6841194452541474
 30
0.0
 10
2.519509201734162
 20
0.6898391750034875
 30
0.0
 10
2.519483103959729
 20
0.6952666953375748
 30
0.0
 10
2.519458279035143
 20
0.7004037884116637
 30
0.0
 10
2.519434726960003
 20
0.7052523770911738
 30
0.0
 10
2.519412447733901
 20
0.7098145201077394
 30
0.0
 10
2.519391441356419
 20
0.7140924072359497
 30
0.0
 10
2.519371707827131
 20
0.7180883544954352
 30
0.0
 10
2.519353247145608
 20
0.7218047993799576
 30
0.0
 10
2.519336059311392
 20
0.7252442961255924
 30
0.0
 10
2.519320144324093
 20
0.7284095109905746
 30
0.0
 10
2.519305502183013
 20
0.7313032176651143
 30
0.0
 10
2.519292132888579
 20
0.7339282923888353
 30
0.0
 10
2.519280036436977
 20
0.7362877103552412
 30
0.0
 10
2.519269212840064
 20
0.7383845375681997
 30
0.0
 10
2.519259662051638
 20
0.7402219397736184
 30
0.0
 10
2.519251384240408
 20
0.7418031284027116
 30
0.0
 10
2.519244378779245
 20
0.743131540024709
 30
0.0
 10
2.519238647987855
 20
0.744210151396352
 30
0.0
 10
2.519234183274555
 20
0.7450439954958098
 30
0.0
 10
2.519231016447847
 20
0.7456308257619012
 30
0.0
 10
2.519229029737835
 20
0.7459956616909346
 30
0.0
 10
2.519228782016845
 20
0.7460405887937075
 30
0.0
 10
2.519228658488387
 20
0.7460629921259844
 30
0.0
  0
SPLINE
  5
DD
330
1F
100
AcDbEntity
  8
0
  6
Continuous
 62
     7
370
    25
100
AcDbSpline
210
0.0
220
0.0
230
1.0
 70
     8
 71
     3
 72
    19
 73
    15
 74
     0
 42
0.000000001
 43
0.00000001
 40
0.0
 40
0.0
 40
0.0
 40
0.0
 40
0.0738952660092202
 40
0.1500096707976087
 40
0.2277396153947259
 40
0.3070850530796971
 40
0.3880459349207732
 40
0.4706222098474632
 40
0.5548138247157478
 40
0.6406207243671603
 40
0.7280428516824106
 40
0.8170801476301432
 40
0.9077325513113701
 40
1.0
 40
1.0
 40
1.0
 40
1.0
 10
2.394157046481186
 20
0.7460426580867116
 30
0.0
 10
2.394154102447819
 20
0.7455705184068033
 30
0.0
 10
2.394148125969215
 20
0.744612060283861
 30
0.0
 10
2.394101010024985
 20
0.7365703482138027
 30
0.0
 10
2.394026043821369
 20
0.7233439141318463
 30
0.0
 10
2.393920374133889
 20
0.7042243293824549
 30
0.0
 10
2.393784823924196
 20
0.6791586742754822
 30
0.0
 10
2.393619162697281
 20
0.6479778075463006
 30
0.0
 10
2.393423462099046
 20
0.6106283963044984
 30
0.0
 10
2.39319766788052
 20
0.5671115196289122
 30
0.0
 10
2.392941923909635
 20
0.5175406642291088
 30
0.0
 10
2.392655692748712
 20
0.4620176985141097
 30
0.0
 10
2.392341028412959
 20
0.4011277303419232
 30
0.0
 10
2.392109095252371
 20
0.3568193355897179
 30
0.0
 10
2.391992104774212
 20
0.3344695332784388
 30
0.0
  0
SPLINE
  5
DE
330
1F
100
AcDbEntity
  8
0
  6
Continuous
 62
     7
370
    25
100
AcDbSpline
210
0.0
220
0.0
230
1.0
 70
     8
 71
     3
 72
    19
 73
    15
 74
     0
 42
0.000000001
 43
0.00000001
 40
0.0
 40
0.0
 40
0.0
 40
0.0
 40
0.0729118139674247
 40
0.1478064676053761
 40
0.224578601638629
 40
0.3032281349185722
 40
0.3837549830490442
 40
0.466159058471826
 40
0.5504402705426275
 40
0.6365985255988027
 40
0.724633727019861
 40
0.81454577528167
 40
0.906334568005133
 40
1.0
 40
1.0
 40
1.0
 40
1.0
 10
2.519228680165928
 20
-0.7460589989049587
 30
0.0
 10
2.519231649808246
 20
-0.7455267218632079
 30
0.0
 10
2.519237669852424
 20
-0.7444476924844604
 30
0.0
 10
2.519284930135443
 20
-0.7355361370810267
 30
0.0
 10
2.51935994571914
 20
-0.720849821547525
 30
0.0
 10
2.519465660532739
 20
-0.6995406008831923
 30
0.0
 10
2.519601250982916
 20
-0.6715013749608216
 30
0.0
 10
2.519766949280801
 20
-0.6365100236633258
 30
0.0
 10
2.519962683958163
 20
-0.59448682755041
 30
0.0
 10
2.520188507762567
 20
-0.545431575296316
 30
0.0
 10
2.520444284406899
 20
-0.4894871077477823
 30
0.0
 10
2.520730525295529
 20
-0.4268207844901313
 30
0.0
 10
2.521045269486895
 20
-0.3581179763670013
 30
0.0
 10
2.521276790229492
 20
-0.3083673005191858
 30
0.0
 10
2.521393721997448
 20
-0.2832402452989569
 30
0.0
  0
SPLINE
  5
DF
330
1F
100
AcDbEntity
  8
0
  6
Continuous
 62
     7
370
    25
100
AcDbSpline
210
0.0
220
0.0
230
1.0
 70
     8
 71
     3
 72
    65
 73
    61
 74
     0
 42
0.000000001
 43
0.00000001
 40
0.0
 40
0.0
 40
0.0
 40
0.0
 40
0.019208366369643
 40
0.038347714369979
 40
0.057418044053817
 40
0.0764193554749414
 40
0.0953516486881318
 40
0.11421492374917
 40
0.1330091807148598
 40
0.1517344196430341
 40
0.1703906405925744
 40
0.1889778436234195
 40
0.2074960287965856
 40
0.2259451961741739
 40
0.2443253458193937
 40
0.2626364777965693
 40
0.2808785921711606
 40
0.299051689009779
 40
0.3171557683801997
 40
0.3351908303513811
 40
0.3531568749934796
 40
0.3710539023778691
 40
0.388881912577155
 40
0.4066409056651946
 40
0.4243308817171119
 40
0.4419518408093208
 40
0.4595037830195379
 40
0.4769867084268072
 40
0.4944006171115137
 40
0.5117455091554085
 40
0.5290213846416257
 40
0.5462282436547051
 40
0.5633660862806102
 40
0.580434912606754
 40
0.597434722722016
 40
0.6143655167167685
 40
0.6312272946828981
 40
0.6480200567138261
 40
0.6647438029045382
 40
0.6813985333516027
 40
0.6979842481531994
 40
0.7145009474091417
 40
0.7309486312209053
 40
0.7473272996916516
 40
0.7636369529262579
 40
0.7798775910313405
 40
0.7960492141152873
 40
0.8121518222882832
 40
0.8281854156623408
 40
0.8441499943513293
 40
0.8600455584710064
 40
0.8758721081390471
 40
0.8916296434750794
 40
0.9073181646007118
 40
0.9229376716395715
 40
0.9384881647173354
 40
0.9539696439617654
 40
0.9693821095027451
 40
0.9847255614723135
 40
1.0
 40
1.0
 40
1.0
 40
1.0
 10
2.391992104774203
 20
-0.3346438819359799
 30
0.0
 10
2.392016848170093
 20
-0.3393498263710608
 30
0.0
 10
2.392066246055362
 20
-0.3487448061191916
 30
0.0
 10
2.392138917102924
 20
-0.3626151632619288
 30
0.0
 10
2.392210373452578
 20
-0.3762847373575016
 30
0.0
 10
2.392280523309218
 20
-0.3897355946377004
 30
0.0
 10
2.392349391136328
 20
-0.4029672755670627
 30
0.0
 10
2.392416970414735
 20
-0.4159749131661389
 30
0.0
 10
2.392483262881916
 20
-0.4287550626803146
 30
0.0
 10
2.392548268075058
 20
-0.4413041461434347
 30
0.0
 10
2.392611986117688
 20
-0.4536188648528228
 30
0.0
 10
2.392674416977094
 20
-0.465696087283488
 30
0.0
 10
2.392735560662193
 20
-0.477532876650942
 30
0.0
 10
2.39279541717082
 20
-0.4891264811307937
 30
0.0
 10
2.392853986503761
 20
-0.5004743339043493
 30
0.0
 10
2.392911268661021
 20
-0.5115740504667672
 30
0.0
 10
2.392967263642816
 20
-0.5224234265510216
 30
0.0
 10
2.393021971449307
 20
-0.5330204357796889
 30
0.0
 10
2.393075392080676
 20
-0.5433632272866208
 30
0.0
 10
2.393127525537102
 20
-0.5534501232493959
 30
0.0
 10
2.393178371818768
 20
-0.5632796163536219
 30
0.0
 10
2.393227930925859
 20
-0.5728503671887331
 30
0.0
 10
2.393276202858564
 20
-0.5821612015805511
 30
0.0
 10
2.393323187617073
 20
-0.5912111078643147
 30
0.0
 10
2.393368885201583
 20
-0.5999992341022129
 30
0.0
 10
2.393413295612288
 20
-0.608524885249286
 30
0.0
 10
2.393456418849392
 20
-0.6167875202715286
 30
0.0
 10
2.393498254913096
 20
-0.624786749219931
 30
0.0
 10
2.393538803803609
 20
-0.632522330264159
 30
0.0
 10
2.393578065521138
 20
-0.6399941666894614
 30
0.0
 10
2.3936160400659
 20
-0.6472023038603559
 30
0.0
 10
2.393652727438109
 20
-0.6541469261545393
 30
0.0
 10
2.393688127637988
 20
-0.6608283538704212
 30
0.0
 10
2.393722240665761
 20
-0.6672470401115685
 30
0.0
 10
2.393755066521653
 20
-0.6734035676513129
 30
0.0
 10
2.393786605205898
 20
-0.6792986457806455
 30
0.0
 10
2.39381685671873
 20
-0.6849331071424904
 30
0.0
 10
2.393845821060389
 20
-0.690307904555336
 30
0.0
 10
2.393873498231117
 20
-0.6954241078291368
 30
0.0
 10
2.393899888231163
 20
-0.7002829005763149
 30
0.0
 10
2.393924991060774
 20
-0.7048855770206118
 30
0.0
 10
2.393948806720209
 20
-0.7092335388064512
 30
0.0
 10
2.393971335209727
 20
-0.7133282918114264
 30
0.0
 10
2.393992576529591
 20
-0.7171714429642876
 30
0.0
 10
2.394012530680071
 20
-0.7207646970713847
 30
0.0
 10
2.394031197661437
 20
-0.7241098536518908
 30
0.0
 10
2.39404857747398
 20
-0.7272088037915851
 30
0.0
 10
2.394064670117923
 20
-0.7300635269894806
 30
0.0
 10
2.394079475593791
 20
-0.7326760881028933
 30
0.0
 10
2.394092993900981
 20
-0.7350486340091397
 30
0.0
 10
2.394105225043115
 20
-0.7371833914091838
 30
0.0
 10
2.394116169008163
 20
-0.7390826604972529
 30
0.0
 10
2.394125825842178
 20
-0.7407488240675136
 30
0.0
 10
2.394134195375847
 20
-0.742184299502458
 30
0.0
 10
2.394141278238384
 20
-0.7433917026564335
 30
0.0
 10
2.394147072098564
 20
-0.7443732262796983
 30
0.0
 10
2.394151585600407
 20
-0.745132930555696
 30
0.0
 10
2.394154786700638
 20
-0.7456682378819333
 30
0.0
 10
2.394156794187158
 20
-0.7460014490762815
 30
0.0
 10
2.394157043772353
 20
-0.7460425086258106
 30
0.0
 10
2.394157168283665
 20
-0.7460629921259823
 30
0.0
  0
SPLINE
  5
E0
330
1F
100
AcDbEntity
  8
0
  6
Continuous
 62
     7
370
    25
100
AcDbSpline
210
0.0
220
0.0
230
1.0
 70
     8
 71
     3
 72
    14
 73
    10
 74
     0
 42
0.000000001
 43
0.00000001
 40
0.0
 40
0.0
 40
0.0
 40
0.0
 40
0.25
 40
0.25
 40
0.5
 40
0.5
 40
0.75
 40
0.75
 40
1.0
 40
1.0
 40
1.0
 40
1.0
 10
1.945551968503941
 20
0.184019751381243
 30
0.0
 10
1.945551968503941
 20
0.1532479868999946
 30
0.0
 10
1.94218657290571
 20
0.1226690539464362
 30
0.0
 10
1.935050079961065
 20
0.0615717211631466
 30
0.0
 10
1.931150407073514
 20
0.0310515911807798
 30
0.0
 10
1.931120223486219
 20
-0.0306576075943547
 30
0.0
 10
1.935014850810575
 20
-0.0612808638470873
 30
0.0
 10
1.942168107415511
 20
-0.1225002986118806
 30
0.0
 10
1.945551968503941
 20
-0.1531253589410834
 30
0.0
 10
1.945551968503941
 20
-0.1840197513812421
 30
0.0
  0
SPLINE
  5
E4
330
1F
100
AcDbEntity
  8
0
  6
Continuous
 62
     7
370
    25
100
AcDbSpline
210
0.0
220
0.0
230
1.0
 70
    24
 71
     3
 72
    36
 73
    32
 74
     0
 42
0.000000001
 43
0.00000001
 40
0.0
 40
0.0
 40
0.0
 40
0.0
 40
0.008342736147616
 40
0.0166717578729731
 40
0.0249927565392749
 40
0.0333114399770624
 40
0.0416335207806859
 40
0.0499647045558976
 40
0.0583106782391212
 40
0.0892000181715952
 40
0.1201024501244892
 40
0.1522794836933875
 40
0.1844696623623261
 40
0.2501185541901817
 40
0.3157674460180372
 40
0.3800521247305225
 40
0.4417709100428832
 40
0.5000016941073956
 40
0.558232478171908
 40
0.6199512634842688
 40
0.684235942196754
 40
0.7498848340246096
 40
0.8155337258524652
 40
0.8477107604797098
 40
0.8799009402066695
 40
0.9107902791917667
 40
0.9416927106065054
 40
0.9562798634307792
 40
0.9708397291933909
 40
0.9854029132289891
 40
0.9999999999999999
 40
0.9999999999999999
 40
0.9999999999999999
 40
0.9999999999999999
 10
3.90555354330709
 20
0.502573593128807
 30
0.0
 10
3.90555354330709
 20
0.5025407056880599
 30
0.0
 10
3.90555354330709
 20
0.5024749848694344
 30
0.0
 10
3.905553543307092
 20
0.5019420290049432
 30
0.0
 10
3.90555354330709
 20
0.5010908600161188
 30
0.0
 10
3.905553543307092
 20
0.4998904336585276
 30
0.0
 10
3.90555354330709
 20
0.4983491063454837
 30
0.0
 10
3.90555354330709
 20
0.4964644731714309
 30
0.0
 10
3.905553543307091
 20
0.4922352862781633
 30
0.0
 10
3.905553543307092
 20
0.4837738982341814
 30
0.0
 10
3.90555354330709
 20
0.4677997536324567
 30
0.0
 10
3.90555354330709
 20
0.4470144841183645
 30
0.0
 10
3.905553543307092
 20
0.4124921039778003
 30
0.0
 10
3.90555354330709
 20
0.3579006574402696
 30
0.0
 10
3.90555354330709
 20
0.2775325779327851
 30
0.0
 10
3.90555354330709
 20
0.1874612518863402
 30
0.0
 10
3.90555354330709
 20
0.0937944922435438
 30
0.0
 10
3.905553543307091
 20
-0.0000000000996173
 30
0.0
 10
3.905553543307091
 20
-0.0937944918331407
 30
0.0
 10
3.90555354330709
 20
-0.1874612534425047
 30
0.0
 10
3.905553543307091
 20
-0.2775325718428736
 30
0.0
 10
3.90555354330709
 20
-0.3579006806624087
 30
0.0
 10
3.90555354330709
 20
-0.4124876470254104
 30
0.0
 10
3.905553543307091
 20
-0.4470114054011468
 30
0.0
 10
3.90555354330709
 20
-0.4677943429723349
 30
0.0
 10
3.905553543307091
 20
-0.483773095517749
 30
0.0
 10
3.905553543307088
 20
-0.4929837695735405
 30
0.0
 10
3.905553543307092
 20
-0.4980285626409992
 30
0.0
 10
3.90555354330709
 20
-0.500637845543934
 30
0.0
 10
3.90555354330709
 20
-0.5022712078560814
 30
0.0
 10
3.90555354330709
 20
-0.5024727199429336
 30
0.0
 10
3.90555354330709
 20
-0.502573593128807
 30
0.0
  0
SPLINE
  5
E5
330
1F
100
AcDbEntity
  8
0
  6
Continuous
 62
     7
370
    25
100
AcDbSpline
210
0.0
220
0.0
230
1.0
 70
    24
 71
     3
 72
    10
 73
     6
 74
     0
 42
0.000000001
 43
0.00000001
 40
0.0
 40
0.0
 40
0.0
 40
0.0
 40
0.5
 40
0.5
 40
1.0
 40
1.0
 40
1.0
 40
1.0
 10
0.0
 20
0.0
 30
0.0
 10
0.0
 20
-0.077047259963223
 30
0.0
 10
0.0
 20
-0.1509446784500089
 30
0.0
 10
0.0
 20
-0.2599059584336831
 30
0.0
 10
0.0
 20
-0.2905152713952688
 30
0.0
 10
0.0
 20
-0.2905152713952671
 30
0.0
  0
LINE
  5
F0
330
1F
100
AcDbEntity
  8
0
  6
Continuous
 62
     7
370
    25
100
AcDbLine
 10
2.6170599698
 20
-0.905511811
 30
0.0
 11
2.7404035433
 21
-0.905511811
 31
0.0
  0
LINE
  5
F1
330
1F
100
AcDbEntity
  8
0
  6
Continuous
 62
     7
370
    25
100
AcDbLine
 10
2.7404035433
 20
0.905511811
 30
0.0
 11
2.6170599771
 21
0.905511811
 31
0.0
  0
LINE
  5
F2
330
1F
100
AcDbEntity
  8
0
  6
Continuous
 62
     7
370
    25
100
AcDbLine
 10
2.6127298517
 20
0.9030118116
 30
0.0
 11
2.5235586122
 21
0.7485626947
 31
0.0
  0
LINE
  5
F3
330
1F
100
AcDbEntity
  8
0
  6
Continuous
 62
     7
370
    25
100
AcDbLine
 10
2.7716535433
 20
-0.875
 30
0.0
 11
3.5331271364
 21
-0.875
 31
0.0
  0
LINE
  5
F4
330
1F
100
AcDbEntity
  8
0
  6
Continuous
 62
     7
370
    25
100
AcDbLine
 10
3.5331271364
 20
0.875
 30
0.0
 11
2.7716535433
 21
0.875
 31
0.0
  0
LINE
  5
F5
330
1F
100
AcDbEntity
  8
0
  6
Continuous
 62
     7
370
    25
100
AcDbLine
 10
2.5233962015
 20
-0.7482813912
 30
0.0
 11
2.6127682563
 21
-0.9030783304
 31
0.0
  0
LINE
  5
F6
330
1F
100
AcDbEntity
  8
0
  6
Continuous
 62
     7
370
    25
100
AcDbLine
 10
3.5543403399
 20
-0.8662132028
 30
0.0
 11
3.8967667467
 21
-0.5237867965
 31
0.0
  0
LINE
  5
F7
330
1F
100
AcDbEntity
  8
0
  6
Continuous
 62
     7
370
    25
100
AcDbLine
 10
3.8967667467
 20
0.5237867965
 30
0.0
 11
3.5543403399
 21
0.8662132028
 31
0.0
  0
LINE
  5
F8
330
1F
100
AcDbEntity
  8
0
  6
Continuous
 62
     7
370
    25
100
AcDbLine
 10
2.2963258471
 20
0.905511811
 30
0.0
 11
1.9611769685
 21
0.905511811
 31
0.0
  0
LINE
  5
F9
330
1F
100
AcDbEntity
  8
0
  6
Continuous
 62
     7
370
    25
100
AcDbLine
 10
1.9611769685
 20
0.905511811
 30
0.0
 11
1.9455519685
 21
0.889886811
 31
0.0
  0
LINE
  5
FA
330
1F
100
AcDbEntity
  8
0
  6
Continuous
 62
     7
370
    25
100
AcDbLine
 10
1.9455519685
 20
-0.889886811
 30
0.0
 11
1.9611769685
 21
-0.905511811
 31
0.0
  0
LINE
  5
FB
330
1F
100
AcDbEntity
  8
0
  6
Continuous
 62
     7
370
    25
100
AcDbLine
 10
1.9611769685
 20
-0.905511811
 30
0.0
 11
2.2963258471
 21
-0.905511811
 31
0.0
  0
LINE
  5
FC
330
1F
100
AcDbEntity
  8
0
  6
Continuous
 62
     7
370
    25
100
AcDbLine
 10
2.3900553398
 20
0.7481675667
 30
0.0
 11
2.300655974
 21
0.9030118101
 31
0.0
  0
LINE
  5
FD
330
1F
100
AcDbEntity
  8
0
  6
Continuous
 62
     7
370
    25
100
AcDbLine
 10
2.3002886705
 20
-0.9036479985
 30
0.0
 11
2.3899361097
 21
-0.7483740793
 31
0.0
  0
LINE
  5
FE
330
1F
100
AcDbEntity
  8
0
  6
Continuous
 62
     7
370
    25
100
AcDbLine
 10
2.5192286606
 20
0.7460629921
 30
0.0
 11
2.3941570465
 21
0.7460629921
 31
0.0
  0
LINE
  5
FF
330
1F
100
AcDbEntity
  8
0
  6
Continuous
 62
     7
370
    25
100
AcDbLine
 10
2.3941571683
 20
-0.7460629921
 30
0.0
 11
2.5192286802
 21
-0.7460629921
 31
0.0
  0
LINE
  5
100
330
1F
100
AcDbEntity
  8
0
  6
Continuous
 62
     7
370
    25
100
AcDbLine
 10
1.9055118111
 20
-0.625
 30
0.0
 11
1.9143019685
 21
-0.625
 31
0.0
  0
LINE
  5
101
330
1F
100
AcDbEntity
  8
0
  6
Continuous
 62
     7
370
    25
100
AcDbLine
 10
1.9143019685
 20
0.625
 30
0.0
 11
1.9055118111
 21
0.625
 31
0.0
  0
LINE
  5
102
330
1F
100
AcDbEntity
  8
0
  6
Continuous
 62
     7
370
    25
100
AcDbLine
 10
1.9055118111
 20
0.6249999997
 30
0.0
 11
0.0533974308
 21
0.3523488645
 31
0.0
  0
LINE
  5
103
330
1F
100
AcDbEntity
  8
0
  6
Continuous
 62
     7
370
    25
100
AcDbLine
 10
0.0533974308
 20
-0.3523488645
 30
0.0
 11
1.9055118111
 21
-0.6249999997
 31
0.0
  0
LINE
  5
104
330
1F
100
AcDbEntity
  8
0
  6
Continuous
 62
     7
370
    25
100
AcDbLine
 10
2.7716535433
 20
0.875
 30
0.0
 11
2.7716535433
 21
0.0
 31
0.0
  0
LINE
  5
105
330
1F
100
AcDbEntity
  8
0
  6
Continuous
 62
     7
370
    25
100
AcDbLine
 10
2.2963258471
 20
-0.3393394793
 30
0.0
 11
1.9615752022
 21
-0.3396199308
 31
0.0
  0
LINE
  5
106
330
1F
100
AcDbEntity
  8
0
  6
Continuous
 62
     7
370
    25
100
AcDbLine
 10
1.9615752022
 20
-0.3396199119
 30
0.0
 11
1.9679512714
 21
-0.3248031496
 31
0.0
  0
LINE
  5
107
330
1F
100
AcDbEntity
  8
0
  6
Continuous
 62
     7
370
    25
100
AcDbLine
 10
1.9611769685
 20
-0.3248031496
 30
0.0
 11
2.3188788634
 21
-0.3248031496
 31
0.0
  0
LINE
  5
108
330
1F
100
AcDbEntity
  8
0
  6
Continuous
 62
     7
370
    25
100
AcDbLine
 10
2.2963258471
 20
0.3393394793
 30
0.0
 11
1.9615752022
 21
0.33947834
 31
0.0
  0
LINE
  5
109
330
1F
100
AcDbEntity
  8
0
  6
Continuous
 62
     7
370
    25
100
AcDbLine
 10
1.9611769685
 20
0.3395630147
 30
0.0
 11
1.9611769685
 21
0.905511811
 31
0.0
  0
LINE
  5
10A
330
1F
100
AcDbEntity
  8
0
  6
Continuous
 62
     7
370
    25
100
AcDbLine
 10
1.9679512714
 20
0.3248031496
 30
0.0
 11
1.9615752022
 21
0.3396199119
 31
0.0
  0
LINE
  5
10B
330
1F
100
AcDbEntity
  8
0
  6
Continuous
 62
     7
370
    25
100
AcDbLine
 10
2.3188813969
 20
0.3248031496
 30
0.0
 11
1.9611769685
 21
0.3248031496
 31
0.0
  0
LINE
  5
10C
330
1F
100
AcDbEntity
  8
0
  6
Continuous
 62
     7
370
    25
100
AcDbLine
 10
1.9611769685
 20
0.3248031496
 30
0.0
 11
1.945675397
 21
0.3403047212
 31
0.0
  0
LINE
  5
10D
330
1F
100
AcDbEntity
  8
0
  6
Continuous
 62
     7
370
    25
100
AcDbLine
 10
2.2898809384
 20
0.3248031496
 30
0.0
 11
2.2980720596
 21
0.3390264435
 31
0.0
  0
LINE
  5
10E
330
1F
100
AcDbEntity
  8
0
  6
Continuous
 62
     7
370
    25
100
AcDbLine
 10
1.9455519685
 20
0.1840197514
 30
0.0
 11
1.9455519685
 21
0.889886811
 31
0.0
  0
LINE
  5
10F
330
1F
100
AcDbEntity
  8
0
  6
Continuous
 62
     7
370
    25
100
AcDbLine
 10
1.9455519685
 20
-0.889886811
 30
0.0
 11
1.9455519685
 21
-0.1840197514
 31
0.0
  0
LINE
  5
110
330
1F
100
AcDbEntity
  8
0
  6
Continuous
 62
     7
370
    25
100
AcDbLine
 10
1.9611769685
 20
-0.905511811
 30
0.0
 11
1.9611769685
 21
-0.3395630184
 31
0.0
  0
LINE
  5
111
330
1F
100
AcDbEntity
  8
0
  6
Continuous
 62
     7
370
    25
100
AcDbLine
 10
1.945790181
 20
-0.3401899371
 30
0.0
 11
1.9611769685
 21
-0.3248031496
 31
0.0
  0
LINE
  5
112
330
1F
100
AcDbEntity
  8
0
  6
Continuous
 62
     7
370
    25
100
AcDbLine
 10
2.3189074851
 20
-0.3248031496
 30
0.0
 11
2.3327028602
 21
-0.3248031496
 31
0.0
  0
LINE
  5
113
330
1F
100
AcDbEntity
  8
0
  6
Continuous
 62
     7
370
    25
100
AcDbLine
 10
2.3327028605
 20
0.3248031496
 30
0.0
 11
2.3189100089
 21
0.3248031496
 31
0.0
  0
LINE
  5
114
330
1F
100
AcDbEntity
  8
0
  6
Continuous
 62
     7
370
    25
100
AcDbLine
 10
1.9055118111
 20
-0.6249999997
 30
0.0
 11
1.9055118111
 21
0.6249999997
 31
0.0
  0
LINE
  5
115
330
1F
100
AcDbEntity
  8
0
  6
Continuous
 62
     7
370
    25
100
AcDbLine
 10
0.0
 20
0.2905152714
 30
0.0
 11
0.0
 21
0.0
 31
0.0
  0
LINE
  5
116
330
1F
100
AcDbEntity
  8
0
  6
Continuous
 62
     8
370
    25
100
AcDbLine
 10
2.7404035433
 20
0.905511811
 30
0.0
 11
2.7404035433
 21
-0.905511811
 31
0.0
  0
LINE
  5
117
330
1F
100
AcDbEntity
  8
0
  6
Continuous
 62
     8
370
    25
100
AcDbLine
 10
3.5331271364
 20
-0.875
 30
0.0
 11
3.5331271364
 21
0.875
 31
0.0
  0
LINE
  5
118
330
1F
100
AcDbEntity
  8
0
  6
Continuous
 62
     8
370
    25
100
AcDbLine
 10
3.5543403399
 20
-0.8662132034
 30
0.0
 11
3.5543403399
 21
0.8662132034
 31
0.0
  0
LINE
  5
119
330
1F
100
AcDbEntity
  8
0
  6
Continuous
 62
     8
370
    25
100
AcDbLine
 10
3.8967667467
 20
0.5237867966
 30
0.0
 11
3.8967667467
 21
-0.5237867966
 31
0.0
  0
LINE
  5
11A
330
1F
100
AcDbEntity
  8
0
  6
Continuous
 62
     8
370
    25
100
AcDbLine
 10
2.2963258471
 20
0.3393394793
 30
0.0
 11
2.2963258471
 21
0.905511811
 31
0.0
  0
LINE
  5
11B
330
1F
100
AcDbEntity
  8
0
  6
Continuous
 62
     8
370
    25
100
AcDbLine
 10
2.300655974
 20
0.3401597698
 30
0.0
 11
2.300655974
 21
0.9030118112
 31
0.0
  0
LINE
  5
11C
330
1F
100
AcDbEntity
  8
0
  6
Continuous
 62
     8
370
    25
100
AcDbLine
 10
2.2963258471
 20
-0.905511811
 30
0.0
 11
2.2963258471
 21
-0.3393394793
 31
0.0
  0
LINE
  5
11D
330
1F
100
AcDbEntity
  8
0
  6
Continuous
 62
     8
370
    25
100
AcDbLine
 10
1.9143019685
 20
-0.625
 30
0.0
 11
1.9143019685
 21
0.625
 31
0.0
  0
LINE
  5
11E
330
1F
100
AcDbEntity
  8
0
  6
Continuous
 62
     8
370
    25
100
AcDbLine
 10
0.0533974308
 20
0.3523488645
 30
0.0
 11
0.0533974308
 21
-0.3523488645
 31
0.0
  0
ARC
  5
11F
330
1F
100
AcDbEntity
  8
0
  6
Continuous
 62
     7
370
    25
100
AcDbCircle
 10
2.7404035433
 20
0.874261811
 30
0.0
 40
0.0312499999999991
100
AcDbArc
 50
360.0
 51
90.0
  0
ARC
  5
120
330
1F
100
AcDbEntity
  8
0
  6
Continuous
 62
     7
370
    25
100
AcDbCircle
 10
2.7404035433
 20
-0.874261811
 30
0.0
 40
0.0312500000000017
100
AcDbArc
 50
270.0
 51
360.0
  0
ARC
  5
121
330
1F
100
AcDbEntity
  8
0
  6
Continuous
 62
     7
370
    25
100
AcDbCircle
 10
2.6170599797
 20
0.900511811
 30
0.0
 40
0.0050000000000002
100
AcDbArc
 50
90.0175241509
 51
150.0063385675
  0
ARC
  5
122
330
1F
100
AcDbEntity
  8
0
  6
Continuous
 62
     7
370
    25
100
AcDbCircle
 10
3.5331271364
 20
0.845
 30
0.0
 40
0.0299999999999992
100
AcDbArc
 50
45.0
 51
90.0
  0
ARC
  5
123
330
1F
100
AcDbEntity
  8
0
  6
Continuous
 62
     7
370
    25
100
AcDbCircle
 10
3.5331271364
 20
-0.845
 30
0.0
 40
0.0299999999999995
100
AcDbArc
 50
270.0
 51
315.0
  0
ARC
  5
124
330
1F
100
AcDbEntity
  8
0
  6
Continuous
 62
     7
370
    25
100
AcDbCircle
 10
2.2963258471
 20
0.900511811
 30
0.0
 40
0.0049999999999927
100
AcDbArc
 50
30.0000026263
 51
90.0000000001
  0
ARC
  5
125
330
1F
100
AcDbEntity
  8
0
  6
Continuous
 62
     7
370
    25
100
AcDbCircle
 10
2.2963258471
 20
-0.900511811
 30
0.0
 40
0.0049999999999804
100
AcDbArc
 50
269.9999999999
 51
330.0384395516
  0
ARC
  5
126
330
1F
100
AcDbEntity
  8
0
  6
Continuous
 62
     7
370
    25
100
AcDbCircle
 10
2.5192286585
 20
0.7510629921
 30
0.0
 40
0.0050000000000081
100
AcDbArc
 50
269.9803875277
 51
330.0224188654
  0
ARC
  5
127
330
1F
100
AcDbEntity
  8
0
  6
Continuous
 62
     7
370
    25
100
AcDbCircle
 10
2.5192286585
 20
-0.7510629921
 30
0.0
 40
0.005000000000007
100
AcDbArc
 50
33.7425697615
 51
89.973160214
  0
ARC
  5
128
330
1F
100
AcDbEntity
  8
0
  6
Continuous
 62
     7
370
    25
100
AcDbCircle
 10
2.3941571683
 20
-0.7510629921
 30
0.0
 40
0.0050000000000005
100
AcDbArc
 50
89.9756015071
 51
149.5045755416
  0
ARC
  5
129
330
1F
100
AcDbEntity
  8
0
  6
Continuous
 62
     7
370
    25
100
AcDbCircle
 10
2.3941571683
 20
0.7510629921
 30
0.0
 40
0.0049999999999993
100
AcDbArc
 50
215.241238034
 51
269.9404033069
  0
ARC
  5
12A
330
1F
100
AcDbEntity
  8
0
  6
Continuous
 62
     7
370
    25
100
AcDbCircle
 10
1.9143019685
 20
0.65625
 30
0.0
 40
0.0312500000000009
100
AcDbArc
 50
270.0
 51
360.0
  0
ARC
  5
12B
330
1F
100
AcDbEntity
  8
0
  6
Continuous
 62
     7
370
    25
100
AcDbCircle
 10
1.9143019685
 20
-0.65625
 30
0.0
 40
0.0312499999999949
100
AcDbArc
 50
360.0
 51
90.0
  0
ARC
  5
12C
330
1F
100
AcDbEntity
  8
0
  6
Continuous
 62
     7
370
    25
100
AcDbCircle
 10
3.8755535433
 20
0.5025735931
 30
0.0
 40
0.0300000000000056
100
AcDbArc
 50
0.0
 51
45.0
  0
ARC
  5
12D
330
1F
100
AcDbEntity
  8
0
  6
Continuous
 62
     7
370
    25
100
AcDbCircle
 10
3.8755535433
 20
-0.5025735931
 30
0.0
 40
0.0300000000000004
100
AcDbArc
 50
315.0
 51
0.0
  0
ARC
  5
12E
330
1F
100
AcDbEntity
  8
0
  6
Continuous
 62
     7
370
    25
100
AcDbCircle
 10
0.0625
 20
0.2905152714
 30
0.0
 40
0.0625000000110781
100
AcDbArc
 50
98.3744060758
 51
179.999999984
  0
ARC
  5
12F
330
1F
100
AcDbEntity
  8
0
  6
Continuous
 62
     7
370
    25
100
AcDbCircle
 10
0.0625
 20
-0.2905152714
 30
0.0
 40
0.0624999999811055
100
AcDbArc
 50
179.9999999923
 51
261.6255939479
  0
ENDSEC
  0
SECTION
  2
OBJECTS
  0
DICTIONARY
  5
C
330
0
100
AcDbDictionary
281
     1
  3
ACAD_GROUP
350
D
  3
ACAD_LAYOUT
350
1A
  3
ACAD_MLINESTYLE
350
17
  3
ACAD_PLOTSETTINGS
350
19
  3
ACAD_PLOTSTYLENAME
350
E
  3
ACAD_SCALELIST
350
47
  0
DICTIONARY
  5
D
102
{ACAD_REACTORS
330
C
102
}
330
C
100
AcDbDictionary
281
     1
  0
DICTIONARY
  5
1A
102
{ACAD_REACTORS
330
C
102
}
330
C
100
AcDbDictionary
281
     1
  3
Layout1
350
1E
  3
Layout2
350
26
  3
Model
350
22
  0
DICTIONARY
  5
17
102
{ACAD_REACTORS
330
C
102
}
330
C
100
AcDbDictionary
281
     1
  3
Standard
350
18
  0
DICTIONARY
  5
19
102
{ACAD_REACTORS
330
C
102
}
330
C
100
AcDbDictionary
281
     1
  0
ACDBDICTIONARYWDFLT
  5
E
102
{ACAD_REACTORS
330
C
102
}
330
C
100
AcDbDictionary
281
     1
  3
Normal
350
F
100
AcDbDictionaryWithDefault
340
F
  0
DICTIONARY
  5
47
102
{ACAD_REACTORS
330
C
102
}
330
C
100
AcDbDictionary
281
     1
  3
A0
350
48
  3
A1
350
49
  3
A2
350
4A
  3
A3
350
4B
  3
A4
350
4C
  3
A5
350
4D
  3
A6
350
4E
  3
A7
350
4F
  3
A8
350
50
  3
A9
350
51
  3
B0
350
52
  3
B1
350
53
  3
B2
350
54
  3
B3
350
55
  3
B4
350
56
  3
B5
350
57
  3
B6
350
58
  3
B7
350
59
  3
B8
350
5A
  3
B9
350
5B
  3
C0
350
5C
  3
C1
350
5D
  3
C2
350
5E
  3
C3
350
5F
  3
C4
350
60
  3
C5
350
61
  3
C6
350
62
  3
C7
350
63
  3
C8
350
64
  3
C9
350
65
  3
D0
350
66
  3
D1
350
67
  3
D2
350
68
  0
LAYOUT
  5
1E
102
{ACAD_REACTORS
330
1A
102
}
330
1A
100
AcDbPlotSettings
  1

  2
none_device
  4

  6

 40
0.0
 41
0.0
 42
0.0
 43
0.0
 44
0.0
 45
0.0
 46
0.0
 47
0.0
 48
0.0
 49
0.0
140
0.0
141
0.0
142
1.0
143
1.0
 70
   688
 72
     0
 73
     0
 74
     5
  7

 75
    16
147
1.0
148
0.0
149
0.0
100
AcDbLayout
  1
Layout1
 70
     1
 71
     1
 10
0.0
 20
0.0
 11
12.0
 21
9.0
 12
0.0
 22
0.0
 32
0.0
 14
1.0000000000E+20
 24
1.0000000000E+20
 34
1.0000000000E+20
 15
-1.0000000000E+20
 25
-1.0000000000E+20
 35
-1.0000000000E+20
146
0.0
 13
0.0
 23
0.0
 33
0.0
 16
1.0
 26
0.0
 36
0.0
 17
0.0
 27
1.0
 37
0.0
 76
     0
330
1B
  0
LAYOUT
  5
26
102
{ACAD_REACTORS
330
1A
102
}
330
1A
100
AcDbPlotSettings
  1

  2
none_device
  4

  6

 40
0.0
 41
0.0
 42
0.0
 43
0.0
 44
0.0
 45
0.0
 46
0.0
 47
0.0
 48
0.0
 49
0.0
140
0.0
141
0.0
142
1.0
143
1.0
 70
   688
 72
     0
 73
     0
 74
     5
  7

 75
    16
147
1.0
148
0.0
149
0.0
100
AcDbLayout
  1
Layout2
 70
     1
 71
     2
 10
0.0
 20
0.0
 11
0.0
 21
0.0
 12
0.0
 22
0.0
 32
0.0
 14
0.0
 24
0.0
 34
0.0
 15
0.0
 25
0.0
 35
0.0
146
0.0
 13
0.0
 23
0.0
 33
0.0
 16
1.0
 26
0.0
 36
0.0
 17
0.0
 27
1.0
 37
0.0
 76
     0
330
23
  0
LAYOUT
  5
22
102
{ACAD_REACTORS
330
1A
102
}
330
1A
100
AcDbPlotSettings
  1

  2
none_device
  4
ANSI_A_(11.00_x_8.50_Inches)
  6

 40
6.35
 41
19.05
 42
6.35000508
 43
19.05000254
 44
279.4
 45
215.9
 46
-4.95300254
 47
88.8999989181
 48
0.0
 49
0.0
140
0.0
141
0.0
142
2.7883371408
143
1.0
 70
  1696
 72
     0
 73
     0
 74
     0
  7

 75
     0
147
0.5913241897
148
-39.4088153714
149
0.0
100
AcDbLayout
  1
Model
 70
     1
 71
     0
 10
0.0
 20
0.0
 11
12.0
 21
9.0
 12
0.0
 22
0.0
 32
0.0
 14
0.0
 24
-0.9055118163
 34
0.0
 15
3.9055535433
 25
0.905511811
 35
0.0
146
0.0
 13
0.0
 23
0.0
 33
0.0
 16
1.0
 26
0.0
 36
0.0
 17
0.0
 27
1.0
 37
0.0
 76
     0
330
1F
331
29
  0
MLINESTYLE
  5
18
102
{ACAD_REACTORS
330
17
102
}
330
17
100
AcDbMlineStyle
  2
Standard
 70
     0
  3

 62
   256
 51
90.0
 52
90.0
 71
     2
 49
0.5
 62
   256
  6
BYLAYER
 49
-0.5
 62
   256
  6
BYLAYER
  0
ACDBPLACEHOLDER
  5
F
102
{ACAD_REACTORS
330
E
102
}
330
E
  0
SCALE
  5
48
102
{ACAD_REACTORS
330
47
102
}
330
47
100
AcDbScale
 70
     0
300
1:1
140
1.0
141
1.0
290
     1
  0
SCALE
  5
49
102
{ACAD_REACTORS
330
47
102
}
330
47
100
AcDbScale
 70
     0
300
1:2
140
1.0
141
2.0
290
     0
  0
SCALE
  5
4A
102
{ACAD_REACTORS
330
47
102
}
330
47
100
AcDbScale
 70
     0
300
1:4
140
1.0
141
4.0
290
     0
  0
SCALE
  5
4B
102
{ACAD_REACTORS
330
47
102
}
330
47
100
AcDbScale
 70
     0
300
1:5
140
1.0
141
5.0
290
     0
  0
SCALE
  5
4C
102
{ACAD_REACTORS
330
47
102
}
330
47
100
AcDbScale
 70
     0
300
1:8
140
1.0
141
8.0
290
     0
  0
SCALE
  5
4D
102
{ACAD_REACTORS
330
47
102
}
330
47
100
AcDbScale
 70
     0
300
1:10
140
1.0
141
10.0
290
     0
  0
SCALE
  5
4E
102
{ACAD_REACTORS
330
47
102
}
330
47
100
AcDbScale
 70
     0
300
1:16
140
1.0
141
16.0
290
     0
  0
SCALE
  5
4F
102
{ACAD_REACTORS
330
47
102
}
330
47
100
AcDbScale
 70
     0
300
1:20
140
1.0
141
20.0
290
     0
  0
SCALE
  5
50
102
{ACAD_REACTORS
330
47
102
}
330
47
100
AcDbScale
 70
     0
300
1:30
140
1.0
141
30.0
290
     0
  0
SCALE
  5
51
102
{ACAD_REACTORS
330
47
102
}
330
47
100
AcDbScale
 70
     0
300
1:40
140
1.0
141
40.0
290
     0
  0
SCALE
  5
52
102
{ACAD_REACTORS
330
47
102
}
330
47
100
AcDbScale
 70
     0
300
1:50
140
1.0
141
50.0
290
     0
  0
SCALE
  5
53
102
{ACAD_REACTORS
330
47
102
}
330
47
100
AcDbScale
 70
     0
300
1:100
140
1.0
141
100.0
290
     0
  0
SCALE
  5
54
102
{ACAD_REACTORS
330
47
102
}
330
47
100
AcDbScale
 70
     0
300
2:1
140
2.0
141
1.0
290
     0
  0
SCALE
  5
55
102
{ACAD_REACTORS
330
47
102
}
330
47
100
AcDbScale
 70
     0
300
4:1
140
4.0
141
1.0
290
     0
  0
SCALE
  5
56
102
{ACAD_REACTORS
330
47
102
}
330
47
100
AcDbScale
 70
     0
300
8:1
140
8.0
141
1.0
290
     0
  0
SCALE
  5
57
102
{ACAD_REACTORS
330
47
102
}
330
47
100
AcDbScale
 70
     0
300
10:1
140
10.0
141
1.0
290
     0
  0
SCALE
  5
58
102
{ACAD_REACTORS
330
47
102
}
330
47
100
AcDbScale
 70
     0
300
100:1
140
100.0
141
1.0
290
     0
  0
SCALE
  5
59
102
{ACAD_REACTORS
330
47
102
}
330
47
100
AcDbScale
 70
     0
300
1/128" = 1'-0"
140
0.0078125
141
12.0
290
     0
  0
SCALE
  5
5A
102
{ACAD_REACTORS
330
47
102
}
330
47
100
AcDbScale
 70
     0
300
1/64" = 1'-0"
140
0.015625
141
12.0
290
     0
  0
SCALE
  5
5B
102
{ACAD_REACTORS
330
47
102
}
330
47
100
AcDbScale
 70
     0
300
1/32" = 1'-0"
140
0.03125
141
12.0
290
     0
  0
SCALE
  5
5C
102
{ACAD_REACTORS
330
47
102
}
330
47
100
AcDbScale
 70
     0
300
1/16" = 1'-0"
140
0.0625
141
12.0
290
     0
  0
SCALE
  5
5D
102
{ACAD_REACTORS
330
47
102
}
330
47
100
AcDbScale
 70
     0
300
3/32" = 1'-0"
140
0.09375
141
12.0
290
     0
  0
SCALE
  5
5E
102
{ACAD_REACTORS
330
47
102
}
330
47
100
AcDbScale
 70
     0
300
1/8" = 1'-0"
140
0.125
141
12.0
290
     0
  0
SCALE
  5
5F
102
{ACAD_REACTORS
330
47
102
}
330
47
100
AcDbScale
 70
     0
300
3/16" = 1'-0"
140
0.1875
141
12.0
290
     0
  0
SCALE
  5
60
102
{ACAD_REACTORS
330
47
102
}
330
47
100
AcDbScale
 70
     0
300
1/4" = 1'-0"
140
0.25
141
12.0
290
     0
  0
SCALE
  5
61
102
{ACAD_REACTORS
330
47
102
}
330
47
100
AcDbScale
 70
     0
300
3/8" = 1'-0"
140
0.375
141
12.0
290
     0
  0
SCALE
  5
62
102
{ACAD_REACTORS
330
47
102
}
330
47
100
AcDbScale
 70
     0
300
1/2" = 1'-0"
140
0.5
141
12.0
290
     0
  0
SCALE
  5
63
102
{ACAD_REACTORS
330
47
102
}
330
47
100
AcDbScale
 70
     0
300
3/4" = 1'-0"
140
0.75
141
12.0
290
     0
  0
SCALE
  5
64
102
{ACAD_REACTORS
330
47
102
}
330
47
100
AcDbScale
 70
     0
300
1" = 1'-0"
140
1.0
141
12.0
290
     0
  0
SCALE
  5
65
102
{ACAD_REACTORS
330
47
102
}
330
47
100
AcDbScale
 70
     0
300
1-1/2" = 1'-0"
140
1.5
141
12.0
290
     0
  0
SCALE
  5
66
102
{ACAD_REACTORS
330
47
102
}
330
47
100
AcDbScale
 70
     0
300
3" = 1'-0"
140
3.0
141
12.0
290
     0
  0
SCALE
  5
67
102
{ACAD_REACTORS
330
47
102
}
330
47
100
AcDbScale
 70
     0
300
6" = 1'-0"
140
6.0
141
12.0
290
     0
  0
SCALE
  5
68
102
{ACAD_REACTORS
330
47
102
}
330
47
100
AcDbScale
 70
     0
300
1'-0" = 1'-0"
140
12.0
141
12.0
290
     0
  0
ENDSEC
  0
EOF
