ISO-10303-21;
HEADER;
/* Generated by software containing ST-Developer
 * from STEP Tools, Inc. (www.steptools.com) 
 */

FILE_DESCRIPTION(
/* description */ (''),
/* implementation_level */ '2;1');

FILE_NAME(
/* name */ 'SSA8mm-Cap.step',
/* time_stamp */ '2025-12-08T16:38:35-06:00',
/* author */ (''),
/* organization */ (''),
/* preprocessor_version */ 'ST-DEVELOPER v20.1',
/* originating_system */ 'Autodesk Translation Framework v14.21.0.0',
/* authorisation */ '');

FILE_SCHEMA (('AUTOMOTIVE_DESIGN { 1 0 10303 214 3 1 1 }'));
ENDSEC;

DATA;
#10=MECHANICAL_DESIGN_GEOMETRIC_PRESENTATION_REPRESENTATION('',(#17),#404);
#11=ITEM_DEFINED_TRANSFORMATION($,$,#231,#262);
#12=(
REPRESENTATION_RELATIONSHIP($,$,#418,#417)
REPRESENTATION_RELATIONSHIP_WITH_TRANSFORMATION(#11)
SHAPE_REPRESENTATION_RELATIONSHIP()
);
#13=CONTEXT_DEPENDENT_SHAPE_REPRESENTATION(#12,#416);
#14=NEXT_ASSEMBLY_USAGE_OCCURRENCE('SSA8mm-Cap v1:1','SSA8mm-Cap v1:1',
'SSA8mm-Cap v1:1',#420,#421,'SSA8mm-Cap v1:1');
#15=SHAPE_REPRESENTATION_RELATIONSHIP('SRR','None',#418,#16);
#16=ADVANCED_BREP_SHAPE_REPRESENTATION('',(#18),#403);
#17=STYLED_ITEM('',(#432),#18);
#18=MANIFOLD_SOLID_BREP('Body1',#217);
#19=CYLINDRICAL_SURFACE('',#239,0.15748031496063);
#20=CYLINDRICAL_SURFACE('',#243,0.15248031496063);
#21=CYLINDRICAL_SURFACE('',#253,0.3045);
#22=CYLINDRICAL_SURFACE('',#261,0.1015);
#23=FACE_BOUND('',#48,.T.);
#24=FACE_BOUND('',#54,.T.);
#25=FACE_BOUND('',#57,.T.);
#26=FACE_BOUND('',#62,.T.);
#27=PLANE('',#235);
#28=PLANE('',#245);
#29=PLANE('',#249);
#30=PLANE('',#257);
#31=FACE_OUTER_BOUND('',#46,.T.);
#32=FACE_OUTER_BOUND('',#47,.T.);
#33=FACE_OUTER_BOUND('',#49,.T.);
#34=FACE_OUTER_BOUND('',#50,.T.);
#35=FACE_OUTER_BOUND('',#51,.T.);
#36=FACE_OUTER_BOUND('',#52,.T.);
#37=FACE_OUTER_BOUND('',#53,.T.);
#38=FACE_OUTER_BOUND('',#55,.T.);
#39=FACE_OUTER_BOUND('',#56,.T.);
#40=FACE_OUTER_BOUND('',#58,.T.);
#41=FACE_OUTER_BOUND('',#59,.T.);
#42=FACE_OUTER_BOUND('',#60,.T.);
#43=FACE_OUTER_BOUND('',#61,.T.);
#44=FACE_OUTER_BOUND('',#63,.T.);
#45=FACE_OUTER_BOUND('',#64,.T.);
#46=EDGE_LOOP('',(#143,#144,#145,#146));
#47=EDGE_LOOP('',(#147));
#48=EDGE_LOOP('',(#148));
#49=EDGE_LOOP('',(#149,#150,#151,#152));
#50=EDGE_LOOP('',(#153,#154,#155,#156));
#51=EDGE_LOOP('',(#157,#158,#159,#160));
#52=EDGE_LOOP('',(#161,#162,#163,#164));
#53=EDGE_LOOP('',(#165));
#54=EDGE_LOOP('',(#166));
#55=EDGE_LOOP('',(#167,#168,#169,#170));
#56=EDGE_LOOP('',(#171));
#57=EDGE_LOOP('',(#172));
#58=EDGE_LOOP('',(#173,#174,#175,#176));
#59=EDGE_LOOP('',(#177,#178,#179,#180));
#60=EDGE_LOOP('',(#181,#182,#183,#184));
#61=EDGE_LOOP('',(#185));
#62=EDGE_LOOP('',(#186));
#63=EDGE_LOOP('',(#187,#188,#189,#190));
#64=EDGE_LOOP('',(#191,#192,#193,#194));
#65=LINE('',#346,#76);
#66=LINE('',#354,#77);
#67=LINE('',#358,#78);
#68=LINE('',#362,#79);
#69=LINE('',#366,#80);
#70=LINE('',#372,#81);
#71=LINE('',#380,#82);
#72=LINE('',#384,#83);
#73=LINE('',#388,#84);
#74=LINE('',#394,#85);
#75=LINE('',#397,#86);
#76=VECTOR('',#271,0.1065);
#77=VECTOR('',#282,0.15248031496063);
#78=VECTOR('',#287,0.15748031496063);
#79=VECTOR('',#292,0.15498031496063);
#80=VECTOR('',#297,0.15248031496063);
#81=VECTOR('',#304,0.16973031596063);
#82=VECTOR('',#315,0.2995);
#83=VECTOR('',#320,0.3045);
#84=VECTOR('',#325,0.2915);
#85=VECTOR('',#332,0.15075);
#86=VECTOR('',#337,0.1015);
#87=CIRCLE('',#233,0.1015);
#88=CIRCLE('',#234,0.1115);
#89=CIRCLE('',#236,0.14748031496063);
#90=CIRCLE('',#238,0.15748031496063);
#91=CIRCLE('',#240,0.15748031496063);
#92=CIRCLE('',#242,0.15248031496063);
#93=CIRCLE('',#244,0.15248031496063);
#94=CIRCLE('',#246,0.16723031596063);
#95=CIRCLE('',#248,0.17223031596063);
#96=CIRCLE('',#250,0.2945);
#97=CIRCLE('',#252,0.3045);
#98=CIRCLE('',#254,0.3045);
#99=CIRCLE('',#256,0.2785);
#100=CIRCLE('',#258,0.2);
#101=CIRCLE('',#260,0.1015);
#102=VERTEX_POINT('',#343);
#103=VERTEX_POINT('',#345);
#104=VERTEX_POINT('',#349);
#105=VERTEX_POINT('',#352);
#106=VERTEX_POINT('',#356);
#107=VERTEX_POINT('',#360);
#108=VERTEX_POINT('',#364);
#109=VERTEX_POINT('',#368);
#110=VERTEX_POINT('',#371);
#111=VERTEX_POINT('',#375);
#112=VERTEX_POINT('',#378);
#113=VERTEX_POINT('',#382);
#114=VERTEX_POINT('',#386);
#115=VERTEX_POINT('',#390);
#116=VERTEX_POINT('',#393);
#117=EDGE_CURVE('',#102,#102,#87,.T.);
#118=EDGE_CURVE('',#102,#103,#65,.T.);
#119=EDGE_CURVE('',#103,#103,#88,.T.);
#120=EDGE_CURVE('',#104,#104,#89,.T.);
#121=EDGE_CURVE('',#105,#105,#90,.T.);
#122=EDGE_CURVE('',#105,#104,#66,.T.);
#123=EDGE_CURVE('',#106,#106,#91,.T.);
#124=EDGE_CURVE('',#106,#105,#67,.T.);
#125=EDGE_CURVE('',#107,#107,#92,.T.);
#126=EDGE_CURVE('',#107,#106,#68,.T.);
#127=EDGE_CURVE('',#108,#108,#93,.T.);
#128=EDGE_CURVE('',#108,#107,#69,.T.);
#129=EDGE_CURVE('',#109,#109,#94,.T.);
#130=EDGE_CURVE('',#109,#110,#70,.T.);
#131=EDGE_CURVE('',#110,#110,#95,.T.);
#132=EDGE_CURVE('',#111,#111,#96,.T.);
#133=EDGE_CURVE('',#112,#112,#97,.T.);
#134=EDGE_CURVE('',#112,#111,#71,.T.);
#135=EDGE_CURVE('',#113,#113,#98,.T.);
#136=EDGE_CURVE('',#113,#112,#72,.T.);
#137=EDGE_CURVE('',#114,#114,#99,.T.);
#138=EDGE_CURVE('',#114,#113,#73,.T.);
#139=EDGE_CURVE('',#115,#115,#100,.T.);
#140=EDGE_CURVE('',#115,#116,#74,.T.);
#141=EDGE_CURVE('',#116,#116,#101,.T.);
#142=EDGE_CURVE('',#116,#102,#75,.T.);
#143=ORIENTED_EDGE('',*,*,#117,.T.);
#144=ORIENTED_EDGE('',*,*,#118,.T.);
#145=ORIENTED_EDGE('',*,*,#119,.F.);
#146=ORIENTED_EDGE('',*,*,#118,.F.);
#147=ORIENTED_EDGE('',*,*,#120,.F.);
#148=ORIENTED_EDGE('',*,*,#119,.T.);
#149=ORIENTED_EDGE('',*,*,#121,.F.);
#150=ORIENTED_EDGE('',*,*,#122,.T.);
#151=ORIENTED_EDGE('',*,*,#120,.T.);
#152=ORIENTED_EDGE('',*,*,#122,.F.);
#153=ORIENTED_EDGE('',*,*,#123,.F.);
#154=ORIENTED_EDGE('',*,*,#124,.T.);
#155=ORIENTED_EDGE('',*,*,#121,.T.);
#156=ORIENTED_EDGE('',*,*,#124,.F.);
#157=ORIENTED_EDGE('',*,*,#125,.F.);
#158=ORIENTED_EDGE('',*,*,#126,.T.);
#159=ORIENTED_EDGE('',*,*,#123,.T.);
#160=ORIENTED_EDGE('',*,*,#126,.F.);
#161=ORIENTED_EDGE('',*,*,#127,.F.);
#162=ORIENTED_EDGE('',*,*,#128,.T.);
#163=ORIENTED_EDGE('',*,*,#125,.T.);
#164=ORIENTED_EDGE('',*,*,#128,.F.);
#165=ORIENTED_EDGE('',*,*,#129,.F.);
#166=ORIENTED_EDGE('',*,*,#127,.T.);
#167=ORIENTED_EDGE('',*,*,#129,.T.);
#168=ORIENTED_EDGE('',*,*,#130,.T.);
#169=ORIENTED_EDGE('',*,*,#131,.F.);
#170=ORIENTED_EDGE('',*,*,#130,.F.);
#171=ORIENTED_EDGE('',*,*,#132,.F.);
#172=ORIENTED_EDGE('',*,*,#131,.T.);
#173=ORIENTED_EDGE('',*,*,#133,.F.);
#174=ORIENTED_EDGE('',*,*,#134,.T.);
#175=ORIENTED_EDGE('',*,*,#132,.T.);
#176=ORIENTED_EDGE('',*,*,#134,.F.);
#177=ORIENTED_EDGE('',*,*,#135,.F.);
#178=ORIENTED_EDGE('',*,*,#136,.T.);
#179=ORIENTED_EDGE('',*,*,#133,.T.);
#180=ORIENTED_EDGE('',*,*,#136,.F.);
#181=ORIENTED_EDGE('',*,*,#137,.F.);
#182=ORIENTED_EDGE('',*,*,#138,.T.);
#183=ORIENTED_EDGE('',*,*,#135,.T.);
#184=ORIENTED_EDGE('',*,*,#138,.F.);
#185=ORIENTED_EDGE('',*,*,#137,.T.);
#186=ORIENTED_EDGE('',*,*,#139,.F.);
#187=ORIENTED_EDGE('',*,*,#139,.T.);
#188=ORIENTED_EDGE('',*,*,#140,.T.);
#189=ORIENTED_EDGE('',*,*,#141,.F.);
#190=ORIENTED_EDGE('',*,*,#140,.F.);
#191=ORIENTED_EDGE('',*,*,#141,.T.);
#192=ORIENTED_EDGE('',*,*,#142,.T.);
#193=ORIENTED_EDGE('',*,*,#117,.F.);
#194=ORIENTED_EDGE('',*,*,#142,.F.);
#195=CONICAL_SURFACE('',#232,0.1065,0.785398163397448);
#196=CONICAL_SURFACE('',#237,0.15248031496063,0.785398163397449);
#197=CONICAL_SURFACE('',#241,0.15498031496063,0.785398163397451);
#198=CONICAL_SURFACE('',#247,0.16973031596063,0.785398163397448);
#199=CONICAL_SURFACE('',#251,0.2995,0.785398163397448);
#200=CONICAL_SURFACE('',#255,0.2915,0.785398163397447);
#201=CONICAL_SURFACE('',#259,0.15075,0.715584993317676);
#202=ADVANCED_FACE('',(#31),#195,.F.);
#203=ADVANCED_FACE('',(#32,#23),#27,.T.);
#204=ADVANCED_FACE('',(#33),#196,.T.);
#205=ADVANCED_FACE('',(#34),#19,.T.);
#206=ADVANCED_FACE('',(#35),#197,.T.);
#207=ADVANCED_FACE('',(#36),#20,.T.);
#208=ADVANCED_FACE('',(#37,#24),#28,.T.);
#209=ADVANCED_FACE('',(#38),#198,.F.);
#210=ADVANCED_FACE('',(#39,#25),#29,.T.);
#211=ADVANCED_FACE('',(#40),#199,.T.);
#212=ADVANCED_FACE('',(#41),#21,.T.);
#213=ADVANCED_FACE('',(#42),#200,.T.);
#214=ADVANCED_FACE('',(#43,#26),#30,.T.);
#215=ADVANCED_FACE('',(#44),#201,.F.);
#216=ADVANCED_FACE('',(#45),#22,.F.);
#217=CLOSED_SHELL('',(#202,#203,#204,#205,#206,#207,#208,#209,#210,#211,
#212,#213,#214,#215,#216));
#218=DERIVED_UNIT_ELEMENT(#220,1.);
#219=DERIVED_UNIT_ELEMENT(#408,-3.);
#220=(
MASS_UNIT()
NAMED_UNIT(*)
SI_UNIT(.KILO.,.GRAM.)
);
#221=DERIVED_UNIT((#218,#219));
#222=MEASURE_REPRESENTATION_ITEM('density measure',
POSITIVE_RATIO_MEASURE(7850.),#221);
#223=PROPERTY_DEFINITION_REPRESENTATION(#228,#225);
#224=PROPERTY_DEFINITION_REPRESENTATION(#229,#226);
#225=REPRESENTATION('material name',(#227),#403);
#226=REPRESENTATION('density',(#222),#403);
#227=DESCRIPTIVE_REPRESENTATION_ITEM('Steel','Steel');
#228=PROPERTY_DEFINITION('material property','material name',#421);
#229=PROPERTY_DEFINITION('material property','density of part',#421);
#230=AXIS2_PLACEMENT_3D('',#340,#263,#264);
#231=AXIS2_PLACEMENT_3D('',#341,#265,#266);
#232=AXIS2_PLACEMENT_3D('',#342,#267,#268);
#233=AXIS2_PLACEMENT_3D('',#344,#269,#270);
#234=AXIS2_PLACEMENT_3D('',#347,#272,#273);
#235=AXIS2_PLACEMENT_3D('',#348,#274,#275);
#236=AXIS2_PLACEMENT_3D('',#350,#276,#277);
#237=AXIS2_PLACEMENT_3D('',#351,#278,#279);
#238=AXIS2_PLACEMENT_3D('',#353,#280,#281);
#239=AXIS2_PLACEMENT_3D('',#355,#283,#284);
#240=AXIS2_PLACEMENT_3D('',#357,#285,#286);
#241=AXIS2_PLACEMENT_3D('',#359,#288,#289);
#242=AXIS2_PLACEMENT_3D('',#361,#290,#291);
#243=AXIS2_PLACEMENT_3D('',#363,#293,#294);
#244=AXIS2_PLACEMENT_3D('',#365,#295,#296);
#245=AXIS2_PLACEMENT_3D('',#367,#298,#299);
#246=AXIS2_PLACEMENT_3D('',#369,#300,#301);
#247=AXIS2_PLACEMENT_3D('',#370,#302,#303);
#248=AXIS2_PLACEMENT_3D('',#373,#305,#306);
#249=AXIS2_PLACEMENT_3D('',#374,#307,#308);
#250=AXIS2_PLACEMENT_3D('',#376,#309,#310);
#251=AXIS2_PLACEMENT_3D('',#377,#311,#312);
#252=AXIS2_PLACEMENT_3D('',#379,#313,#314);
#253=AXIS2_PLACEMENT_3D('',#381,#316,#317);
#254=AXIS2_PLACEMENT_3D('',#383,#318,#319);
#255=AXIS2_PLACEMENT_3D('',#385,#321,#322);
#256=AXIS2_PLACEMENT_3D('',#387,#323,#324);
#257=AXIS2_PLACEMENT_3D('',#389,#326,#327);
#258=AXIS2_PLACEMENT_3D('',#391,#328,#329);
#259=AXIS2_PLACEMENT_3D('',#392,#330,#331);
#260=AXIS2_PLACEMENT_3D('',#395,#333,#334);
#261=AXIS2_PLACEMENT_3D('',#396,#335,#336);
#262=AXIS2_PLACEMENT_3D('',#398,#338,#339);
#263=DIRECTION('axis',(0.,0.,1.));
#264=DIRECTION('refdir',(1.,0.,0.));
#265=DIRECTION('axis',(0.,0.,1.));
#266=DIRECTION('refdir',(1.,0.,0.));
#267=DIRECTION('center_axis',(-1.,0.,0.));
#268=DIRECTION('ref_axis',(0.,1.,0.));
#269=DIRECTION('center_axis',(1.,0.,0.));
#270=DIRECTION('ref_axis',(0.,0.,-1.));
#271=DIRECTION('',(-0.707106781186548,-0.707106781186547,-8.65956056235493E-17));
#272=DIRECTION('center_axis',(1.,0.,0.));
#273=DIRECTION('ref_axis',(0.,0.,-1.));
#274=DIRECTION('center_axis',(-1.,0.,0.));
#275=DIRECTION('ref_axis',(0.,0.,1.));
#276=DIRECTION('center_axis',(1.,0.,0.));
#277=DIRECTION('ref_axis',(0.,0.,-1.));
#278=DIRECTION('center_axis',(1.,0.,0.));
#279=DIRECTION('ref_axis',(0.,1.,0.));
#280=DIRECTION('center_axis',(1.,0.,0.));
#281=DIRECTION('ref_axis',(0.,0.,-1.));
#282=DIRECTION('',(-0.707106781186547,0.707106781186548,8.65956056235493E-17));
#283=DIRECTION('center_axis',(1.,0.,0.));
#284=DIRECTION('ref_axis',(0.,1.,0.));
#285=DIRECTION('center_axis',(1.,0.,0.));
#286=DIRECTION('ref_axis',(0.,0.,-1.));
#287=DIRECTION('',(-1.,0.,0.));
#288=DIRECTION('center_axis',(-1.,0.,0.));
#289=DIRECTION('ref_axis',(0.,1.,0.));
#290=DIRECTION('center_axis',(1.,0.,0.));
#291=DIRECTION('ref_axis',(0.,0.,-1.));
#292=DIRECTION('',(-0.707106781186546,-0.707106781186549,-8.65956056235495E-17));
#293=DIRECTION('center_axis',(1.,0.,0.));
#294=DIRECTION('ref_axis',(0.,1.,0.));
#295=DIRECTION('center_axis',(1.,0.,0.));
#296=DIRECTION('ref_axis',(0.,0.,-1.));
#297=DIRECTION('',(-1.,0.,0.));
#298=DIRECTION('center_axis',(-1.,0.,0.));
#299=DIRECTION('ref_axis',(0.,0.,1.));
#300=DIRECTION('center_axis',(1.,0.,0.));
#301=DIRECTION('ref_axis',(0.,0.,-1.));
#302=DIRECTION('center_axis',(-1.,0.,0.));
#303=DIRECTION('ref_axis',(0.,1.,0.));
#304=DIRECTION('',(-0.707106781186547,-0.707106781186547,-8.65956056235493E-17));
#305=DIRECTION('center_axis',(1.,0.,0.));
#306=DIRECTION('ref_axis',(0.,0.,-1.));
#307=DIRECTION('center_axis',(-1.,0.,0.));
#308=DIRECTION('ref_axis',(0.,0.,1.));
#309=DIRECTION('center_axis',(1.,0.,0.));
#310=DIRECTION('ref_axis',(0.,0.,-1.));
#311=DIRECTION('center_axis',(1.,0.,0.));
#312=DIRECTION('ref_axis',(0.,1.,0.));
#313=DIRECTION('center_axis',(1.,0.,0.));
#314=DIRECTION('ref_axis',(0.,0.,-1.));
#315=DIRECTION('',(-0.707106781186547,0.707106781186548,8.65956056235493E-17));
#316=DIRECTION('center_axis',(1.,0.,0.));
#317=DIRECTION('ref_axis',(0.,1.,0.));
#318=DIRECTION('center_axis',(1.,0.,0.));
#319=DIRECTION('ref_axis',(0.,0.,-1.));
#320=DIRECTION('',(-1.,0.,0.));
#321=DIRECTION('center_axis',(-1.,0.,0.));
#322=DIRECTION('ref_axis',(0.,1.,0.));
#323=DIRECTION('center_axis',(1.,0.,0.));
#324=DIRECTION('ref_axis',(0.,0.,-1.));
#325=DIRECTION('',(-0.707106781186548,-0.707106781186547,-8.65956056235492E-17));
#326=DIRECTION('center_axis',(1.,0.,0.));
#327=DIRECTION('ref_axis',(0.,0.,-1.));
#328=DIRECTION('center_axis',(1.,0.,0.));
#329=DIRECTION('ref_axis',(0.,0.,-1.));
#330=DIRECTION('center_axis',(1.,0.,0.));
#331=DIRECTION('ref_axis',(0.,1.,0.));
#332=DIRECTION('',(-0.754709580222771,0.656059028990508,8.03440589904947E-17));
#333=DIRECTION('center_axis',(1.,0.,0.));
#334=DIRECTION('ref_axis',(0.,0.,-1.));
#335=DIRECTION('center_axis',(1.,0.,0.));
#336=DIRECTION('ref_axis',(0.,1.,0.));
#337=DIRECTION('',(-1.,0.,0.));
#338=DIRECTION('',(0.,0.,1.));
#339=DIRECTION('',(1.,0.,0.));
#340=CARTESIAN_POINT('',(0.,0.,0.));
#341=CARTESIAN_POINT('',(0.,0.,0.));
#342=CARTESIAN_POINT('Origin',(0.00499999999999999,0.,0.));
#343=CARTESIAN_POINT('',(0.00999999999999999,-0.1015,-1.24301650113456E-17));
#344=CARTESIAN_POINT('Origin',(0.00999999999999999,0.,0.));
#345=CARTESIAN_POINT('',(-3.41480999208033E-18,-0.1115,-1.3654811810493E-17));
#346=CARTESIAN_POINT('',(0.00499999999999999,-0.1065,-1.30424884109193E-17));
#347=CARTESIAN_POINT('Origin',(0.,0.,0.));
#348=CARTESIAN_POINT('Origin',(-4.44481724465556E-18,0.14748031496063,0.));
#349=CARTESIAN_POINT('',(-6.82961998416066E-19,-0.14748031496063,-1.80611295653779E-17));
#350=CARTESIAN_POINT('Origin',(0.,0.,0.));
#351=CARTESIAN_POINT('Origin',(0.00499999999999999,0.,0.));
#352=CARTESIAN_POINT('',(0.00999999999999998,-0.15748031496063,-1.92857763645252E-17));
#353=CARTESIAN_POINT('Origin',(0.00999999999999997,0.,0.));
#354=CARTESIAN_POINT('',(0.00499999999999999,-0.15248031496063,-1.86734529649516E-17));
#355=CARTESIAN_POINT('Origin',(0.1575,0.,0.));
#356=CARTESIAN_POINT('',(0.305,-0.15748031496063,-1.92857763645252E-17));
#357=CARTESIAN_POINT('Origin',(0.305,0.,0.));
#358=CARTESIAN_POINT('',(0.1575,-0.15748031496063,-1.92857763645252E-17));
#359=CARTESIAN_POINT('Origin',(0.3075,0.,0.));
#360=CARTESIAN_POINT('',(0.31,-0.15248031496063,-1.86734529649516E-17));
#361=CARTESIAN_POINT('Origin',(0.31,0.,0.));
#362=CARTESIAN_POINT('',(0.3075,-0.15498031496063,-1.89796146647384E-17));
#363=CARTESIAN_POINT('Origin',(0.3175,0.,0.));
#364=CARTESIAN_POINT('',(0.325,-0.15248031496063,-1.86734529649516E-17));
#365=CARTESIAN_POINT('Origin',(0.325,0.,0.));
#366=CARTESIAN_POINT('',(0.3175,-0.15248031496063,-1.86734529649516E-17));
#367=CARTESIAN_POINT('Origin',(0.325,0.16723031596063,0.));
#368=CARTESIAN_POINT('',(0.325,-0.16723031596063,-2.04798071161586E-17));
#369=CARTESIAN_POINT('Origin',(0.325,0.,0.));
#370=CARTESIAN_POINT('Origin',(0.3225,0.,0.));
#371=CARTESIAN_POINT('',(0.32,-0.17223031596063,-2.10921305157323E-17));
#372=CARTESIAN_POINT('',(0.3225,-0.16973031596063,-2.07859688159454E-17));
#373=CARTESIAN_POINT('Origin',(0.32,0.,0.));
#374=CARTESIAN_POINT('Origin',(0.32,0.2945,0.));
#375=CARTESIAN_POINT('',(0.32,-0.2945,-3.60658482348895E-17));
#376=CARTESIAN_POINT('Origin',(0.32,0.,0.));
#377=CARTESIAN_POINT('Origin',(0.325,0.,0.));
#378=CARTESIAN_POINT('',(0.33,-0.3045,-3.72904950340369E-17));
#379=CARTESIAN_POINT('Origin',(0.33,0.,0.));
#380=CARTESIAN_POINT('',(0.325,-0.2995,-3.66781716344632E-17));
#381=CARTESIAN_POINT('Origin',(0.3815,0.,0.));
#382=CARTESIAN_POINT('',(0.433,-0.3045,-3.72904950340369E-17));
#383=CARTESIAN_POINT('Origin',(0.433,0.,0.));
#384=CARTESIAN_POINT('',(0.3815,-0.3045,-3.72904950340369E-17));
#385=CARTESIAN_POINT('Origin',(0.446,0.,0.));
#386=CARTESIAN_POINT('',(0.459,-0.2785,-3.41064133562538E-17));
#387=CARTESIAN_POINT('Origin',(0.459,0.,0.));
#388=CARTESIAN_POINT('',(0.446,-0.2915,-3.56984541951453E-17));
#389=CARTESIAN_POINT('Origin',(0.459,0.2,0.));
#390=CARTESIAN_POINT('',(0.459,-0.2,-2.44929359829471E-17));
#391=CARTESIAN_POINT('Origin',(0.459,0.,0.));
#392=CARTESIAN_POINT('Origin',(0.402344355944366,0.,0.));
#393=CARTESIAN_POINT('',(0.345688711888731,-0.1015,-1.24301650113456E-17));
#394=CARTESIAN_POINT('',(0.402344355944366,-0.15075,-1.84615504971464E-17));
#395=CARTESIAN_POINT('Origin',(0.345688711888731,0.,0.));
#396=CARTESIAN_POINT('Origin',(0.177844355944365,0.,0.));
#397=CARTESIAN_POINT('',(0.177844355944365,-0.1015,-1.24301650113456E-17));
#398=CARTESIAN_POINT('',(0.,0.,0.));
#399=UNCERTAINTY_MEASURE_WITH_UNIT(LENGTH_MEASURE(0.000393700787401575),
#406,'DISTANCE_ACCURACY_VALUE',
'Maximum model space distance between geometric entities at asserted c
onnectivities');
#400=UNCERTAINTY_MEASURE_WITH_UNIT(LENGTH_MEASURE(0.000393700787401575),
#406,'DISTANCE_ACCURACY_VALUE',
'Maximum model space distance between geometric entities at asserted c
onnectivities');
#401=UNCERTAINTY_MEASURE_WITH_UNIT(LENGTH_MEASURE(0.000393700787401575),
#406,'DISTANCE_ACCURACY_VALUE',
'Maximum model space distance between geometric entities at asserted c
onnectivities');
#402=(
GEOMETRIC_REPRESENTATION_CONTEXT(3)
GLOBAL_UNCERTAINTY_ASSIGNED_CONTEXT((#399))
GLOBAL_UNIT_ASSIGNED_CONTEXT((#406,#410,#411))
REPRESENTATION_CONTEXT('','3D')
);
#403=(
GEOMETRIC_REPRESENTATION_CONTEXT(3)
GLOBAL_UNCERTAINTY_ASSIGNED_CONTEXT((#400))
GLOBAL_UNIT_ASSIGNED_CONTEXT((#406,#410,#411))
REPRESENTATION_CONTEXT('','3D')
);
#404=(
GEOMETRIC_REPRESENTATION_CONTEXT(3)
GLOBAL_UNCERTAINTY_ASSIGNED_CONTEXT((#401))
GLOBAL_UNIT_ASSIGNED_CONTEXT((#406,#410,#411))
REPRESENTATION_CONTEXT('','3D')
);
#405=DIMENSIONAL_EXPONENTS(1.,0.,0.,0.,0.,0.,0.);
#406=(
CONVERSION_BASED_UNIT('inch',#409)
LENGTH_UNIT()
NAMED_UNIT(#405)
);
#407=(
LENGTH_UNIT()
NAMED_UNIT(*)
SI_UNIT(.MILLI.,.METRE.)
);
#408=(
LENGTH_UNIT()
NAMED_UNIT(*)
SI_UNIT($,.METRE.)
);
#409=LENGTH_MEASURE_WITH_UNIT(LENGTH_MEASURE(25.4),#407);
#410=(
NAMED_UNIT(*)
PLANE_ANGLE_UNIT()
SI_UNIT($,.RADIAN.)
);
#411=(
NAMED_UNIT(*)
SI_UNIT($,.STERADIAN.)
SOLID_ANGLE_UNIT()
);
#412=SHAPE_DEFINITION_REPRESENTATION(#414,#417);
#413=SHAPE_DEFINITION_REPRESENTATION(#415,#418);
#414=PRODUCT_DEFINITION_SHAPE('',$,#420);
#415=PRODUCT_DEFINITION_SHAPE('',$,#421);
#416=PRODUCT_DEFINITION_SHAPE($,$,#14);
#417=SHAPE_REPRESENTATION('',(#230,#262),#402);
#418=SHAPE_REPRESENTATION('',(#231),#403);
#419=PRODUCT_DEFINITION_CONTEXT('part definition',#427,'design');
#420=PRODUCT_DEFINITION('SSA8mm-Cap v1 (1)','SSA8mm-Cap v1 (1)',#422,#419);
#421=PRODUCT_DEFINITION('SSA8mm-Cap v1','SSA8mm-Cap v1',#423,#419);
#422=PRODUCT_DEFINITION_FORMATION('',$,#429);
#423=PRODUCT_DEFINITION_FORMATION('',$,#430);
#424=PRODUCT_RELATED_PRODUCT_CATEGORY('SSA8mm-Cap v1 (1)',
'SSA8mm-Cap v1 (1)',(#429));
#425=PRODUCT_RELATED_PRODUCT_CATEGORY('SSA8mm-Cap v1','SSA8mm-Cap v1',(#430));
#426=APPLICATION_PROTOCOL_DEFINITION('international standard',
'automotive_design',2009,#427);
#427=APPLICATION_CONTEXT(
'Core Data for Automotive Mechanical Design Process');
#428=PRODUCT_CONTEXT('part definition',#427,'mechanical');
#429=PRODUCT('SSA8mm-Cap v1 (1)','SSA8mm-Cap v1 (1)',$,(#428));
#430=PRODUCT('SSA8mm-Cap v1','SSA8mm-Cap v1',$,(#428));
#431=PRESENTATION_STYLE_ASSIGNMENT((#433));
#432=PRESENTATION_STYLE_ASSIGNMENT((#434));
#433=SURFACE_STYLE_USAGE(.BOTH.,#435);
#434=SURFACE_STYLE_USAGE(.BOTH.,#436);
#435=SURFACE_SIDE_STYLE('',(#437));
#436=SURFACE_SIDE_STYLE('',(#438));
#437=SURFACE_STYLE_FILL_AREA(#439);
#438=SURFACE_STYLE_FILL_AREA(#440);
#439=FILL_AREA_STYLE('Steel - Satin',(#441));
#440=FILL_AREA_STYLE('Opaque(44,44,44)',(#442));
#441=FILL_AREA_STYLE_COLOUR('Steel - Satin',#443);
#442=FILL_AREA_STYLE_COLOUR('Opaque(44,44,44)',#444);
#443=COLOUR_RGB('Steel - Satin',0.627450980392157,0.627450980392157,0.627450980392157);
#444=COLOUR_RGB('Opaque(44,44,44)',0.172549019607843,0.172549019607843,
0.172549019607843);
ENDSEC;
END-ISO-10303-21;
