0
SECTION
2
HEADER
9
$INSUNITS
70
1
9
$ACADVER
1
AC1014
9
$HANDSEED
5
FFFF
0
ENDSEC
0
SECTION
2
TABLES
0
TABLE
2
VPORT
5
8
100
AcDbSymbolTable
0
ENDTAB
0
TABLE
2
LTYPE
5
5
100
AcDbSymbolTable
0
LTYPE
5
14
100
AcDbSymbolTableRecord
100
AcDbLinetypeTableRecord
2
BYBLOCK
70
0
0
LTYPE
5
15
100
AcDbSymbolTableRecord
100
AcDbLinetypeTableRecord
2
BYLAYER
70
0
0
LTYPE
5
16
100
AcDbSymbolTableRecord
100
AcDbLinetypeTableRecord
2
DASHED
70
0
3
Dashed __ __ __ __ __ __ __ __ __ __ __ __ __ _
72
65
73
2
40
0.75
49
0.5
74
0
49
-0.25
74
0
0
ENDTAB
0
TABLE
2
LAYER
5
2
100
AcDbSymbolTable
70
2
0
LAYER
5
50
100
AcDbSymbolTableRecord
100
AcDbLayerTableRecord
2
0
70
0
62
7
6
CONTINUOUS
0
ENDTAB
0
TABLE
2
STYLE
5
3
100
AcDbSymbolTable
70
1
0
STYLE
5
11
100
AcDbSymbolTableRecord
100
AcDbTextStyleTableRecord
2
STANDARD
70
0
0
ENDTAB
0
TABLE
2
VIEW
5
6
100
AcDbSymbolTable
70
0
0
ENDTAB
0
TABLE
2
UCS
5
7
100
AcDbSymbolTable
70
0
0
ENDTAB
0
TABLE
2
APPID
5
9
100
AcDbSymbolTable
70
2
0
APPID
5
12
100
AcDbSymbolTableRecord
100
AcDbRegAppTableRecord
2
ACAD
70
0
0
ENDTAB
0
TABLE
2
DIMSTYLE
5
A
100
AcDbSymbolTable
70
1
0
ENDTAB
0
TABLE
2
BLOCK_RECORD
5
1
100
AcDbSymbolTable
70
1
0
BLOCK_RECORD
5
1F
100
AcDbSymbolTableRecord
100
AcDbBlockTableRecord
2
*MODEL_SPACE
0
BLOCK_RECORD
5
1B
100
AcDbSymbolTableRecord
100
AcDbBlockTableRecord
2
*PAPER_SPACE
0
ENDTAB
0
ENDSEC
0
SECTION
2
BLOCKS
0
BLOCK
5
20
100
AcDbEntity
100
AcDbBlockBegin
2
*MODEL_SPACE
0
ENDBLK
5
21
100
AcDbEntity
100
AcDbBlockEnd
0
BLOCK
5
1C
100
AcDbEntity
100
AcDbBlockBegin
2
*PAPER_SPACE
0
ENDBLK
5
1D
100
AcDbEntity
100
AcDbBlockEnd
0
ENDSEC
0
SECTION
2
ENTITIES
0
LWPOLYLINE
5
100
100
AcDbEntity
8
0
100
AcDbPolyline
90
48
70
1
43
0.0
10
2.9229999999999992
20
-0.70699999999999996
10
2.9229999999999992
20
-0.64192125984252002
42
-0.41421356237310569
10
2.9349999999999992
20
-0.62992125984251968
10
3.6279999999999992
20
-0.62992125984251957
10
3.6279999999999992
20
0.62992125984251957
10
2.9349999999999992
20
0.62992125984251968
42
-0.41421356237310147
10
2.9229999999999992
20
0.64192125984251991
10
2.9229999999999992
20
0.70699999999999996
10
2.8999999999999995
20
0.72999999999999998
10
2.6699999999999995
20
0.72999999999999987
42
-0.41421356237309626
10
2.6489999999999991
20
0.75100000000000011
10
2.6489999999999991
20
0.7959999999999996
10
2.6399999999999992
20
0.80499999999999983
10
0.90900000000000003
20
0.80499999999999983
42
-0.41421356237309503
10
0.86999999999999988
20
0.84399999999999986
10
0.86999999999999988
20
0.85099999999999998
42
0.41421356237309503
10
0.81699999999999995
20
0.90399999999999991
10
0.69000000000000006
20
0.90399999999999991
10
0.60699999999999998
20
0.745
10
0.47199999999999992
20
0.745
10
0.38899999999999996
20
0.90399999999999991
10
0.098999999999999519
20
0.90400000000000014
10
0.079000000000000001
20
0.8840000000000009
10
0.079000000000000042
20
0.6349999999999999
42
-0.4142135623730957
10
0.068999999999999895
20
0.62499999999999989
10
-3.4967654318902565e-16
20
0.62499999999999989
10
-1.8540154153445298
20
0.36534077298185352
42
0.37402118951943725
10
-1.9099999999999999
20
0.30096902229752298
10
-1.9099999999999999
20
-0.30096902229752298
42
0.37402118951943725
10
-1.8540154153445298
20
-0.36534077298185352
10
-3.4967654318902565e-16
20
-0.62499999999999989
10
0.068999999999999895
20
-0.62499999999999989
42
-0.4142135623730982
10
0.079000000000000001
20
-0.6349999999999999
10
0.079000000000000001
20
-0.8840000000000009
10
0.098999999999999519
20
-0.90400000000000014
10
0.38899999999999996
20
-0.90399999999999991
10
0.47199999999999992
20
-0.745
10
0.60699999999999998
20
-0.745
10
0.69000000000000006
20
-0.90399999999999991
10
0.81699999999999995
20
-0.90399999999999991
42
0.41421356237309503
10
0.86999999999999988
20
-0.85099999999999998
10
0.86999999999999988
20
-0.84399999999999986
42
-0.41421356237309503
10
0.90900000000000003
20
-0.80499999999999983
10
2.6399999999999992
20
-0.80499999999999983
10
2.6489999999999991
20
-0.7959999999999996
10
2.6489999999999991
20
-0.75100000000000022
42
-0.41421356237309748
10
2.6699999999999995
20
-0.72999999999999987
10
2.8999999999999995
20
-0.72999999999999998
0
SPLINE
5
101
100
AcDbEntity
8
0
100
AcDbSpline
70
4
71
3
72
23
73
19
74
0
42
0.000000001
43
0.0000000001
44
0.0000000001
40
-2.2217647765505977e-16
40
-2.2217647765505977e-16
40
-2.2217647765505977e-16
40
-2.2217647765505977e-16
40
0.056593212089797826
40
0.056593212089797826
40
0.11318642417959587
40
0.11318642417959587
40
0.18787833077772606
40
0.18787833077772606
40
0.22637284835919175
40
0.22637284835919175
40
0.30559548544443993
40
0.30559548544443993
40
0.39614714288037367
40
0.39614714288037367
40
0.42889079749040931
40
0.42889079749040931
40
0.42889079749040931
40
0.440669291923037
40
0.440669291923037
40
0.440669291923037
40
0.440669291923037
41
1
41
1
41
1
41
1
41
1
41
1
41
1
41
1
41
1
41
1
41
1
41
1
41
1
41
1
41
1
41
1
41
1
41
1
41
1
10
3.4018976377952752
20
-0.78693729479395369
30
0
10
3.4096424884850998
20
-0.78693729479395369
30
0
10
3.4176459981512237
20
-0.78705441588866154
30
0
10
3.433566575898598
20
-0.78753298192443977
30
0
10
3.4414751053807224
20
-0.78789382095027349
30
0
10
3.4590638208745905
20
-0.78894430578776831
30
0
10
3.4685119570367648
20
-0.78970314788363494
30
0
10
3.4812111646557997
20
-0.7909065059915299
30
0
10
3.4852476699358452
20
-0.7913241251866644
30
0
10
3.4965984567053336
20
-0.79257113560042725
30
0
10
3.5035656449332091
20
-0.79345004308822942
30
0
10
3.5155862811076699
20
-0.79507299766640327
30
0
10
3.5202075840236362
20
-0.7957683893299643
30
0
10
3.5236084043252882
20
-0.7962843950692815
30
0
10
3.5242393300837902
20
-0.79638149005149739
30
0
10
3.524608979598038
20
-0.79643844315525947
30
0
10
3.5247419493229337
20
-0.79645893023355208
30
0
10
3.5248749141264639
20
-0.79647944918596658
30
0
10
3.5250078740157482
20
-0.79649999999999987
30
0
0
LINE
5
102
100
AcDbEntity
8
0
100
AcDbLine
10
3.1821181102362202
20
-0.78693729479395369
30
0
11
3.4018976377952752
21
-0.78693729479395369
31
0
0
SPLINE
5
103
100
AcDbEntity
8
0
100
AcDbSpline
70
4
71
3
72
19
73
15
74
0
42
0.000000001
43
0.0000000001
44
0.0000000001
40
-0.44066929192833637
40
-0.44066929192833637
40
-0.44066929192833637
40
-0.44066929192833637
40
-0.4288907974904107
40
-0.4288907974904107
40
-0.4288907974904107
40
-0.39614714288037378
40
-0.39614714288037378
40
-0.30559548544444004
40
-0.30559548544444004
40
-0.18787833077772617
40
-0.18787833077772617
40
-0.1131864241795959
40
-0.1131864241795959
40
2.3173754729815202e-19
40
2.3173754729815202e-19
40
2.3173754729815202e-19
40
2.3173754729815202e-19
41
1
41
1
41
1
41
1
41
1
41
1
41
1
41
1
41
1
41
1
41
1
41
1
41
1
41
1
41
1
10
3.059007874015748
20
-0.79649999999999987
30
0
10
3.0591408339050759
20
-0.7964794491859597
30
0
10
3.0592737987085172
20
-0.79645893023355885
30
0
10
3.0594067684334569
20
-0.79643844315525958
30
0
10
3.0597764179476594
20
-0.79638149005150449
30
0
10
3.0604073437062076
20
-0.7962843950692815
30
0
10
3.0638081640078592
20
-0.7957683893299643
30
0
10
3.0684294669238255
20
-0.79507299766640327
30
0
10
3.0831756546422535
20
-0.79308205538008059
30
0
10
3.0939160198950018
20
-0.79174877310400693
30
0
10
3.1155037909947301
20
-0.78970314788363494
30
0
10
3.1249519271569048
20
-0.78894430578776831
30
0
10
3.1501226284560162
20
-0.78744098736334756
30
0
10
3.1666284088565706
20
-0.78693729479395369
30
0
10
3.1821181102362202
20
-0.78693729479395369
30
0
0
SPLINE
5
104
100
AcDbEntity
8
0
100
AcDbSpline
70
4
71
3
72
23
73
19
74
0
42
0.000000001
43
0.0000000001
44
0.0000000001
40
0.4648145656309085
40
0.4648145656309085
40
0.4648145656309085
40
0.4648145656309085
40
0.4765930600652557
40
0.4765930600652557
40
0.4765930600652557
40
0.50933671467529107
40
0.50933671467529107
40
0.59988837211122503
40
0.59988837211122503
40
0.67911100919647316
40
0.67911100919647316
40
0.71760552677793921
40
0.71760552677793921
40
0.79229743337606884
40
0.79229743337606884
40
0.84889064546586668
40
0.84889064546586668
40
0.90548385755566452
40
0.90548385755566452
40
0.90548385755566452
40
0.90548385755566452
41
1
41
1
41
1
41
1
41
1
41
1
41
1
41
1
41
1
41
1
41
1
41
1
41
1
41
1
41
1
41
1
41
1
41
1
41
1
10
3.5250078740157482
20
0.79649999999999987
30
0
10
3.5248749141264608
20
0.79647944918596603
30
0
10
3.5247419493229373
20
0.79645893023355252
30
0
10
3.524608979598038
20
0.79643844315525947
30
0
10
3.5242393300838355
20
0.79638149005150438
30
0
10
3.5236084043252882
20
0.79628439506928173
30
0
10
3.5202075840236362
20
0.7957683893299643
30
0
10
3.5155862811076699
20
0.79507299766640327
30
0
10
3.5035656449332091
20
0.79345004308822942
30
0
10
3.4965984567053336
20
0.79257113560042725
30
0
10
3.4852476699358452
20
0.7913241251866644
30
0
10
3.4812111646557997
20
0.7909065059915299
30
0
10
3.4685119570367648
20
0.78970314788363494
30
0
10
3.4590638208745905
20
0.78894430578776831
30
0
10
3.4414751053807233
20
0.78789382095027349
30
0
10
3.433566575898598
20
0.78753298192443977
30
0
10
3.4176459981512237
20
0.78705441588866165
30
0
10
3.4096424884850998
20
0.7869372947939538
30
0
10
3.4018976377952752
20
0.7869372947939538
30
0
0
SPLINE
5
105
100
AcDbEntity
8
0
100
AcDbSpline
70
4
71
3
72
19
73
15
74
0
42
0.000000001
43
0.0000000001
44
0.0000000001
40
-0.90548385755566496
40
-0.90548385755566496
40
-0.90548385755566496
40
-0.90548385755566496
40
-0.79229743337606884
40
-0.79229743337606884
40
-0.7176055267779381
40
-0.7176055267779381
40
-0.59988837211122448
40
-0.59988837211122448
40
-0.50933671467529096
40
-0.50933671467529096
40
-0.47659306006525592
40
-0.47659306006525592
40
-0.47659306006525592
40
-0.4648145656130207
40
-0.4648145656130207
40
-0.4648145656130207
40
-0.4648145656130207
41
1
41
1
41
1
41
1
41
1
41
1
41
1
41
1
41
1
41
1
41
1
41
1
41
1
41
1
41
1
10
3.1821181102362202
20
0.7869372947939538
30
0
10
3.1666284088565706
20
0.7869372947939538
30
0
10
3.1501226284560162
20
0.78744098736334756
30
0
10
3.1249519271569048
20
0.78894430578776831
30
0
10
3.1155037909947301
20
0.78970314788363494
30
0
10
3.0939160198950018
20
0.79174877310400693
30
0
10
3.0831756546422535
20
0.79308205538008059
30
0
10
3.0684294669238255
20
0.79507299766640327
30
0
10
3.0638081640078592
20
0.7957683893299643
30
0
10
3.0604073437062076
20
0.79628439506928173
30
0
10
3.0597764179477047
20
0.79638149005149739
30
0
10
3.0594067684334569
20
0.79643844315525947
30
0
10
3.0592737987083392
20
0.79645893023358616
30
0
10
3.0591408339052535
20
0.79647944918593228
30
0
10
3.059007874015748
20
0.79649999999999987
30
0
0
LINE
5
106
100
AcDbEntity
8
0
100
AcDbLine
10
3.4018976377952752
20
0.7869372947939538
30
0
11
3.1821181102362202
21
0.7869372947939538
31
0
0
LINE
5
107
100
AcDbEntity
8
0
100
AcDbLine
10
3.9370078740157477
20
0.73149999999999993
30
0
11
3.9370078740157477
21
-0.73149999999999993
31
0
0
LINE
5
108
100
AcDbEntity
8
0
100
AcDbLine
10
2.7520078740157476
20
-0.77149999999999996
30
0
11
2.7520078740157476
21
0.77149999999999996
31
0
0
LINE
5
109
100
AcDbEntity
8
0
100
AcDbLine
10
3.8720078740157469
20
0.79649999999999987
30
0
11
3.5250078740157482
21
0.79649999999999987
31
0
0
LINE
5
110
100
AcDbEntity
8
0
100
AcDbLine
10
3.059007874015748
20
0.79649999999999987
30
0
11
2.7770078740157476
21
0.79649999999999987
31
0
0
LINE
5
111
100
AcDbEntity
8
0
100
AcDbLine
10
3.8720078740157473
20
-0.79649999999999987
30
0
11
3.5250078740157482
21
-0.79649999999999987
31
0
0
LINE
5
112
100
AcDbEntity
8
0
100
AcDbLine
10
3.059007874015748
20
-0.79649999999999987
30
0
11
2.7770078740157476
21
-0.79649999999999987
31
0
0
ARC
5
113
100
AcDbEntity
8
0
100
AcDbCircle
10
3.8720078740157473
20
-0.73149999999999993
30
0
40
0.065000000000000002
210
-0
220
0
230
1
100
AcDbArc
50
-90
51
0
0
ARC
5
114
100
AcDbEntity
8
0
100
AcDbCircle
10
3.8720078740157473
20
0.73149999999999993
30
0
40
0.065000000000000266
210
0
220
0
230
1
100
AcDbArc
50
0
51
90.000000000000398
0
ARC
5
115
100
AcDbEntity
8
0
100
AcDbCircle
10
2.7770078740157476
20
-0.77149999999999996
30
0
40
0.024999999999999779
210
0
220
0
230
1
100
AcDbArc
50
180
51
270
0
ARC
5
116
100
AcDbEntity
8
0
100
AcDbCircle
10
2.7770078740157476
20
0.77149999999999996
30
0
40
0.024999999999999953
210
0
220
-0
230
1
100
AcDbArc
50
90
51
180
0
ENDSEC
0
SECTION
2
OBJECTS
0
DICTIONARY
5
C
100
AcDbDictionary
3
ACAD_GROUP
350
D
3
ACAD_MLINESTYLE
350
17
0
DICTIONARY
5
D
100
AcDbDictionary
0
DICTIONARY
5
1A
330
C
100
AcDbDictionary
0
DICTIONARY
5
17
100
AcDbDictionary
0
ENDSEC
0
EOF
