0
SECTION
2
HEADER
9
$INSUNITS
70
1
9
$ACADVER
1
AC1014
9
$HANDSEED
5
FFFF
0
ENDSEC
0
SECTION
2
TABLES
0
TABLE
2
VPORT
5
8
100
AcDbSymbolTable
0
ENDTAB
0
TABLE
2
LTYPE
5
5
100
AcDbSymbolTable
0
LTYPE
5
14
100
AcDbSymbolTableRecord
100
AcDbLinetypeTableRecord
2
BYBLOCK
70
0
0
LTYPE
5
15
100
AcDbSymbolTableRecord
100
AcDbLinetypeTableRecord
2
BYLAYER
70
0
0
LTYPE
5
16
100
AcDbSymbolTableRecord
100
AcDbLinetypeTableRecord
2
DASHED
70
0
3
Dashed __ __ __ __ __ __ __ __ __ __ __ __ __ _
72
65
73
2
40
0.75
49
0.5
74
0
49
-0.25
74
0
0
ENDTAB
0
TABLE
2
LAYER
5
2
100
AcDbSymbolTable
70
2
0
LAYER
5
50
100
AcDbSymbolTableRecord
100
AcDbLayerTableRecord
2
0
70
0
62
7
6
CONTINUOUS
0
ENDTAB
0
TABLE
2
STYLE
5
3
100
AcDbSymbolTable
70
1
0
STYLE
5
11
100
AcDbSymbolTableRecord
100
AcDbTextStyleTableRecord
2
STANDARD
70
0
0
ENDTAB
0
TABLE
2
VIEW
5
6
100
AcDbSymbolTable
70
0
0
ENDTAB
0
TABLE
2
UCS
5
7
100
AcDbSymbolTable
70
0
0
ENDTAB
0
TABLE
2
APPID
5
9
100
AcDbSymbolTable
70
2
0
APPID
5
12
100
AcDbSymbolTableRecord
100
AcDbRegAppTableRecord
2
ACAD
70
0
0
ENDTAB
0
TABLE
2
DIMSTYLE
5
A
100
AcDbSymbolTable
70
1
0
ENDTAB
0
TABLE
2
BLOCK_RECORD
5
1
100
AcDbSymbolTable
70
1
0
BLOCK_RECORD
5
1F
100
AcDbSymbolTableRecord
100
AcDbBlockTableRecord
2
*MODEL_SPACE
0
BLOCK_RECORD
5
1B
100
AcDbSymbolTableRecord
100
AcDbBlockTableRecord
2
*PAPER_SPACE
0
ENDTAB
0
ENDSEC
0
SECTION
2
BLOCKS
0
BLOCK
5
20
100
AcDbEntity
100
AcDbBlockBegin
2
*MODEL_SPACE
0
ENDBLK
5
21
100
AcDbEntity
100
AcDbBlockEnd
0
BLOCK
5
1C
100
AcDbEntity
100
AcDbBlockBegin
2
*PAPER_SPACE
0
ENDBLK
5
1D
100
AcDbEntity
100
AcDbBlockEnd
0
ENDSEC
0
SECTION
2
ENTITIES
0
LINE
5
100
100
AcDbEntity
8
0
100
AcDbLine
10
7
20
-0.26369999999999999
30
0
11
7
21
0.26369999999999999
31
0
0
LINE
5
101
100
AcDbEntity
8
0
100
AcDbLine
10
-1.9685039370078701
20
0.56695219634620597
30
0
11
-1.9685039370078701
21
1.3606429530220099
31
0
0
ARC
5
102
100
AcDbEntity
8
0
100
AcDbCircle
10
-1.9295039370078697
20
0.43309999999999998
30
0
40
0.038999999999999882
210
0
220
0
230
1
100
AcDbArc
50
180
51
270
0
LINE
5
103
100
AcDbEntity
8
0
100
AcDbLine
10
-1.9685039370078696
20
0.43309999999999998
30
0
11
-1.9685039370078701
21
0.56695219634620597
31
0
0
LINE
5
104
100
AcDbEntity
8
0
100
AcDbLine
10
-1.9685039370078701
20
-1.3606429530220099
30
0
11
-1.9685039370078701
21
-0.56695219634620608
31
0
0
ARC
5
105
100
AcDbEntity
8
0
100
AcDbCircle
10
-1.9295039370078697
20
-0.43309999999999998
30
0
40
0.038999999999999965
210
0
220
-0
230
1
100
AcDbArc
50
90
51
180
0
LINE
5
106
100
AcDbEntity
8
0
100
AcDbLine
10
-1.9685039370078701
20
-0.56695219634620608
30
0
11
-1.9685039370078696
21
-0.43309999999999998
31
0
0
LINE
5
107
100
AcDbEntity
8
0
100
AcDbLine
10
-1.5995039370078699
20
-0.39410000000000001
30
0
11
-1.9295039370078697
21
-0.39410000000000001
31
0
0
SPLINE
5
108
100
AcDbEntity
8
0
100
AcDbSpline
70
0
71
3
72
14
73
10
74
0
42
0.000000001
43
0.0000000001
44
0.0000000001
40
0.29685063104133425
40
0.29685063104133425
40
0.29685063104133425
40
0.29685063104133425
40
0.32261752327111848
40
0.32261752327111848
40
0.34838441550090266
40
0.34838441550090266
40
0.37223746564151006
40
0.37223746564151006
40
0.3960905157821174
40
0.3960905157821174
40
0.3960905157821174
40
0.3960905157821174
10
-1.5745039370078699
20
-0.36909999999999993
30
0
10
-1.5745039370078699
20
-0.37226279841787302
30
0
10
-1.5751389039043557
20
-0.37564300317852001
30
0
10
-1.5777572561334126
20
-0.38188857290864181
30
0
10
-1.5797412629161385
20
-0.38475401943443366
30
0
10
-1.5842390520170864
20
-0.38912690890241197
30
0
10
-1.586986731488542
20
-0.39098761843344404
30
0
10
-1.5930535284772649
20
-0.3934749973297485
30
0
10
-1.5963736154671078
20
-0.39410000000000001
30
0
10
-1.5995039370078699
20
-0.39410000000000001
30
0
0
LINE
5
109
100
AcDbEntity
8
0
100
AcDbLine
10
-1.5745039370078699
20
-0.36909999999999993
30
0
11
-1.5745039370078697
21
0.36909999999999971
31
0
0
SPLINE
5
110
100
AcDbEntity
8
0
100
AcDbSpline
70
0
71
3
72
14
73
10
74
0
42
0.000000001
43
0.0000000001
44
0.0000000001
40
0.19804525789105881
40
0.19804525789105881
40
0.19804525789105881
40
0.19804525789105881
40
0.22189830803166613
40
0.22189830803166613
40
0.24575135817227345
40
0.24575135817227345
40
0.27151825040205768
40
0.27151825040205768
40
0.29728514263184186
40
0.29728514263184186
40
0.29728514263184186
40
0.29728514263184186
10
-1.5995039370078696
20
0.39410000000000089
30
0
10
-1.5963736154671078
20
0.39410000000000095
30
0
10
-1.5930535284772649
20
0.39347499732974955
30
0
10
-1.586986731488542
20
0.39098761843344509
30
0
10
-1.5842390520170864
20
0.38912690890241297
30
0
10
-1.5797412629161385
20
0.38475401943443471
30
0
10
-1.5777572561334126
20
0.38188857290864309
30
0
10
-1.5751389039043557
20
0.37564300317852123
30
0
10
-1.5745039370078699
20
0.37226279841787407
30
0
10
-1.5745039370078699
20
0.36910000000000098
30
0
0
LINE
5
111
100
AcDbEntity
8
0
100
AcDbLine
10
-1.5995039370078696
20
0.39410000000000089
30
0
11
-1.9295039370078697
21
0.39410000000000006
31
0
0
SPLINE
5
112
100
AcDbEntity
8
0
100
AcDbSpline
70
0
71
3
72
26
73
22
74
0
42
0.000000001
43
0.0000000001
44
0.0000000001
40
-3.6218640436401399
40
-3.6218640436401399
40
-3.6218640436401399
40
-3.6218640436401399
40
-3.3631594690944202
40
-3.3631594690944202
40
-3.3631594690944202
40
-3.2338071818215601
40
-3.2338071818215601
40
-3.2338071818215601
40
-3.1367929663669099
40
-3.1367929663669099
40
-3.1367929663669099
40
-3.1044548945486898
40
-3.1044548945486898
40
-3.1044548945486898
40
-2.9589335713667202
40
-2.9589335713667202
40
-2.9589335713667202
40
-2.8457503200029701
40
-2.8457503200029701
40
-2.8457503200029701
40
-2.7228153544142102
40
-2.7228153544142102
40
-2.7228153544142102
40
-2.7228153544142102
10
-0.59116775200022487
20
0.23599905531011386
30
0
10
-0.62566183936871489
20
0.23590145536080057
30
0
10
-0.66271848348333351
20
0.22763191259190196
30
0
10
-0.69545391660307376
20
0.21137803904302596
30
0
10
-0.71182163316294389
20
0.20325110226858789
30
0
10
-0.72716161792927891
20
0.19320104748307534
30
0
10
-0.74067858388049812
20
0.18205052305238836
30
0
10
-0.750816308343913
20
0.17368762972937268
30
0
10
-0.75996436382246524
20
0.16476199408606718
30
0
10
-0.76849269950212695
20
0.15496644450959546
30
0
10
-0.77133547806201441
20
0.15170126131743789
30
0
10
-0.77410649018402744
20
0.14833687972941093
30
0
10
-0.77679458185763794
20
0.14488039470710939
30
0
10
-0.78889099438888322
20
0.12932621210675477
30
0
10
-0.79926565999326737
20
0.1118888623773286
30
0
10
-0.80724039190277597
20
0.093378811931995889
30
0
10
-0.81344296116572679
20
0.078982106030070956
30
0
10
-0.81819825482737063
20
0.063920118643099294
30
0
10
-0.82138207826971021
20
0.048882163759999549
30
0
10
-0.82484021558780851
20
0.032548559239858721
30
0
10
-0.82649902890115645
20
0.016275498083756623
30
0
10
-0.82649999957954812
20
1.4087344800518214e-05
30
0
0
SPLINE
5
113
100
AcDbEntity
8
0
100
AcDbSpline
70
0
71
3
72
59
73
55
74
0
42
0.000000001
43
0.0000000001
44
0.0000000001
40
-2.72281535433995
40
-2.72281535433995
40
-2.72281535433995
40
-2.72281535433995
40
-2.5870457453866926
40
-2.5870457453866926
40
-2.5870457453866926
40
-2.4900315299346887
40
-2.4900315299346887
40
-2.4900315299346887
40
-2.4576934581173506
40
-2.4576934581173506
40
-2.4576934581173506
40
-2.3283411708480184
40
-2.3283411708480184
40
-2.3283411708480184
40
-2.1989888835786862
40
-2.1989888835786862
40
-2.1989888835786862
40
-2.0696365963093539
40
-2.0696365963093539
40
-2.0696365963093539
40
-1.8971668799502381
40
-1.8971668799502381
40
-1.8971668799502381
40
-1.7246971635911219
40
-1.7246971635911219
40
-1.7246971635911219
40
-1.6815797345013479
40
-1.6815797345013479
40
-1.6815797345013479
40
-1.5522274472320157
40
-1.5522274472320157
40
-1.5522274472320157
40
-1.4228751599626734
40
-1.4228751599626734
40
-1.4228751599626734
40
-1.2072880145137832
40
-1.2072880145137832
40
-1.2072880145137832
40
-1.034818298154677
40
-1.034818298154677
40
-1.034818298154677
40
-0.77611372361600683
40
-0.77611372361600683
40
-0.77611372361600683
40
-0.51740914907733748
40
-0.51740914907733748
40
-0.51740914907733748
40
-0.38805686180800342
40
-0.38805686180800342
40
-0.38805686180800342
40
-0.25870457453866924
40
-0.25870457453866924
40
-0.25870457453866924
40
0
40
0
40
0
40
0
10
-0.82649999957954812
20
1.4087344800518214e-05
30
0
10
-0.82650107159860331
20
-0.017945045490540306
30
0
10
-0.82448544947511293
20
-0.035917078971504722
30
0
10
-0.82025006247755017
20
-0.053952838586693218
30
0
10
-0.81722366540774904
20
-0.06684029611594651
30
0
10
-0.81302769829029742
20
-0.079734127889710474
30
0
10
-0.80779085561229269
20
-0.092090629638838573
30
0
10
-0.80604524138629086
20
-0.096209463555215091
30
0
10
-0.80418602438442222
20
-0.1002707405090188
30
0
10
-0.80221305812410271
20
-0.1042764643615245
30
0
10
-0.79432119308282578
20
-0.12029935977154484
30
0
10
-0.78456903841182246
20
-0.13541445690359477
30
0
10
-0.77356807383318016
20
-0.14893649768612546
30
0
10
-0.76256710925453786
20
-0.16245853846865616
30
0
10
-0.75040646552443901
20
-0.1744600068730506
30
0
10
-0.73656906347193596
20
-0.18536404369896417
30
0
10
-0.72273166141943301
20
-0.19626808052487776
30
0
10
-0.70715700581757701
20
-0.20596626462637851
30
0
10
-0.69058234225530901
20
-0.21372768835293937
30
0
10
-0.6684827908389509
20
-0.22407625332168754
30
0
10
-0.64452627935444085
20
-0.23095614024465447
30
0
10
-0.62098538799390079
20
-0.23402273632889031
30
0
10
-0.59744449663336041
20
-0.23708933241312619
30
0
10
-0.5743695817162966
20
-0.23665072209824439
30
0
10
-0.55088015627746278
20
-0.23265052758032101
30
0
10
-0.54500779991775505
20
-0.23165047895084029
30
0
10
-0.53911335698755825
20
-0.23041679758849598
30
0
10
-0.5332532604574225
20
-0.2289515468647117
30
0
10
-0.51567297086701347
20
-0.22455579469335851
30
0
10
-0.49840415901800378
20
-0.21802808737148649
30
0
10
-0.48245355968934533
20
-0.20981412425334034
30
0
10
-0.46650296036068556
20
-0.20160016113519355
30
0
10
-0.45183545772099648
20
-0.1917545616201978
30
0
10
-0.43854618972326559
20
-0.18057142504389281
30
0
10
-0.41639740972704886
20
-0.16193286408338567
30
0
10
-0.398069194680292
20
-0.13970425388073079
30
0
10
-0.38395692012391502
20
-0.11417511180332247
30
0
10
-0.37266710047881391
20
-0.093751798141396406
30
0
10
-0.36426002831407966
20
-0.071057190859039943
30
0
10
-0.35950840700264958
20
-0.048362009517248263
30
0
10
-0.35238097503550408
20
-0.014319237504559414
30
0
10
-0.35276050456060593
20
0.019511884563997106
30
0
10
-0.36060322103579484
20
0.053324206715931639
30
0
10
-0.3684459375109837
20
0.087136528867865978
30
0
10
-0.38475592876129183
20
0.12060229185547597
30
0
10
-0.4062097350215198
20
0.14742149854808004
30
0
10
-0.41693663815163379
20
0.16083110189438207
30
0
10
-0.42880076378181131
20
0.17277504502344504
30
0
10
-0.44232338017187961
20
0.1836836664930028
30
0
10
-0.45584599656194791
20
0.19459228796256059
30
0
10
-0.47105234607182933
20
0.20433816038005312
30
0
10
-0.4872851260316598
20
0.21223263130748679
30
0
10
-0.51975068595132079
20
0.22802157316235416
30
0
10
-0.55667366463173407
20
0.23609665525942714
30
0
10
-0.59116775200022487
20
0.23599905531011386
30
0
0
LINE
5
114
100
AcDbEntity
8
0
100
AcDbLine
10
0.71358267716535395
20
-1.8749053253618897
30
0
11
0.71358267716535395
21
-1.8307086614173402
31
0
0
LINE
5
115
100
AcDbEntity
8
0
100
AcDbLine
10
0.86122047244094502
20
-1.8749053253618897
30
0
11
0.86122047244094502
21
-1.8307086614173205
31
0
0
LINE
5
116
100
AcDbEntity
8
0
100
AcDbLine
10
1.14173228346457
20
-1.9291338582677298
30
0
11
1.14173228346457
21
-1.3657499999999998
31
0
0
LINE
5
117
100
AcDbEntity
8
0
100
AcDbLine
10
1.14173228346457
20
1.3657499999999996
30
0
11
1.14173228346457
21
1.9291338582677298
31
0
0
LINE
5
118
100
AcDbEntity
8
0
100
AcDbLine
10
0.86122047244094502
20
1.83070866141732
30
0
11
0.86122047244094502
21
1.8749053253618897
31
0
0
LINE
5
119
100
AcDbEntity
8
0
100
AcDbLine
10
0.71358267716535395
20
1.83070866141734
30
0
11
0.71358267716535395
21
1.8749053253618897
31
0
0
LINE
5
120
100
AcDbEntity
8
0
100
AcDbLine
10
0
20
1.4856310190401047
30
0
11
0
21
1.94881889763779
31
0
0
LINE
5
121
100
AcDbEntity
8
0
100
AcDbLine
10
0
20
-1.94881889763779
30
0
11
0
21
-1.4856310190401059
31
0
0
ARC
5
122
100
AcDbEntity
8
0
100
AcDbCircle
10
1.2335797415198562
20
1.3900202379218336
30
0
40
0.094999999999999946
210
0
220
0
230
1
100
AcDbArc
50
194.801803389133
51
277.10632189766886
0
ARC
5
123
100
AcDbEntity
8
0
100
AcDbCircle
10
1.2335797415198562
20
-1.3900202379218336
30
0
40
0.09499999999999989
210
0
220
-0
230
1
100
AcDbArc
50
82.893678102331251
51
165.19819661086717
0
LINE
5
124
100
AcDbEntity
8
0
100
AcDbLine
10
5.0146000000000006
20
0.49700000000000016
30
0
11
1.2453322834645688
21
1.2957500000000073
31
0
0
LINE
5
125
100
AcDbEntity
8
0
100
AcDbLine
10
5.0146000000000006
20
-0.49700000000000016
30
0
11
1.2453322834645686
21
-1.2957500000000073
31
0
0
LINE
5
126
100
AcDbEntity
8
0
100
AcDbLine
10
5.0146000000000006
20
-0.49700000000000016
30
0
11
6.011000000000001
21
-0.497
31
0
0
LINE
5
127
100
AcDbEntity
8
0
100
AcDbLine
10
5.0146000000000006
20
0.49700000000000016
30
0
11
6.0110000000000001
21
0.497
31
0
0
LINE
5
128
100
AcDbEntity
8
0
100
AcDbLine
10
6.9800000000000004
20
0.28075843558276259
30
0
11
6.0110000000000001
21
0.497
31
0
0
LINE
5
129
100
AcDbEntity
8
0
100
AcDbLine
10
6.9800000000000013
20
-0.28075843558276231
30
0
11
6.011000000000001
21
-0.497
31
0
0
ARC
5
130
100
AcDbEntity
8
0
100
AcDbCircle
10
6.9566806327186965
20
0.23316424360937626
30
0
40
0.052999999999999672
210
0
220
-0
230
1
100
AcDbArc
50
35.179951162508232
51
63.89688055704854
0
ARC
5
131
100
AcDbEntity
8
0
100
AcDbCircle
10
6.9566806327186965
20
-0.23316424360937626
30
0
40
0.052999999999999346
210
-0
220
0
230
1
100
AcDbArc
50
296.10311944295245
51
324.82004883749175
0
ARC
5
132
100
AcDbEntity
8
0
100
AcDbCircle
10
-1.9295039370078697
20
1.3606429530220099
30
0
40
0.038999999999999965
210
0
220
0
230
1
100
AcDbArc
50
92.868055555553241
51
180
0
ARC
5
133
100
AcDbEntity
8
0
100
AcDbCircle
10
-1.9295039370078697
20
-1.3606429530220099
30
0
40
0.039000000000000229
210
0
220
0
230
1
100
AcDbArc
50
180
51
267.13194444444673
0
LINE
5
134
100
AcDbEntity
8
0
100
AcDbLine
10
-1.9314553453178793
20
-1.3995941019859059
30
0
11
-0.098425196850394039
21
-1.4914268298865898
31
0
0
LINE
5
135
100
AcDbEntity
8
0
100
AcDbLine
10
-1.9314553453178793
20
1.3995941019859059
30
0
11
-0.098425196850394039
21
1.4914268298865898
31
0
0
LINE
5
136
100
AcDbEntity
8
0
100
AcDbLine
10
0.019685039370079017
20
-1.9685039370078798
30
0
11
0.65954349353576103
21
-1.9685039370078798
31
0
0
LINE
5
137
100
AcDbEntity
8
0
100
AcDbLine
10
0.019685039370079017
20
1.9685039370078798
30
0
11
0.65954349353576103
21
1.9685039370078798
31
0
0
LINE
5
138
100
AcDbEntity
8
0
100
AcDbLine
10
0.71358267716535395
20
-1.8749053253618897
30
0
11
0.65954349353576103
21
-1.9685039370078798
31
0
0
ARC
5
139
100
AcDbEntity
8
0
100
AcDbCircle
10
0.73326771653543299
20
-1.83070866141734
30
0
40
0.019685039370079017
210
0
220
-0
230
1
100
AcDbArc
50
90
51
180
0
LINE
5
140
100
AcDbEntity
8
0
100
AcDbLine
10
0.73326771653543299
20
-1.8110236220472609
30
0
11
0.84153543307086687
21
-1.8110236220472498
31
0
0
ARC
5
141
100
AcDbEntity
8
0
100
AcDbCircle
10
0.84153543307086687
20
-1.83070866141732
30
0
40
0.019685039370078143
210
0
220
0
230
1
100
AcDbArc
50
0
51
90
0
LINE
5
142
100
AcDbEntity
8
0
100
AcDbLine
10
0.86122047244094502
20
-1.8749053253618897
30
0
11
0.91525965607053883
21
-1.9685039370078896
31
0
0
ARC
5
143
100
AcDbEntity
8
0
100
AcDbCircle
10
1.1023622047244097
20
-1.9291338582677298
30
0
40
0.039370078740157334
210
-0
220
0
230
1
100
AcDbArc
50
-90
51
0
0
LINE
5
144
100
AcDbEntity
8
0
100
AcDbLine
10
0.91525965607053883
20
-1.9685039370078896
30
0
11
1.1023622047244097
21
-1.9685039370078872
31
0
0
ARC
5
145
100
AcDbEntity
8
0
100
AcDbCircle
10
1.1023622047244097
20
1.9291338582677298
30
0
40
0.039370078740160137
210
0
220
0
230
1
100
AcDbArc
50
0
51
90
0
LINE
5
146
100
AcDbEntity
8
0
100
AcDbLine
10
0.91525965607053805
20
1.9685039370078798
30
0
11
1.1023622047244097
21
1.9685039370078872
31
0
0
LINE
5
147
100
AcDbEntity
8
0
100
AcDbLine
10
0.86122047244094502
20
1.8749053253618897
30
0
11
0.91525965607053805
21
1.9685039370078798
31
0
0
ARC
5
148
100
AcDbEntity
8
0
100
AcDbCircle
10
0.84153543307086687
20
1.83070866141732
30
0
40
0.019685039370079017
210
-0
220
0
230
1
100
AcDbArc
50
-90
51
0
0
LINE
5
149
100
AcDbEntity
8
0
100
AcDbLine
10
0.73326771653543299
20
1.8110236220472498
30
0
11
0.84153543307086687
21
1.8110236220472411
31
0
0
ARC
5
150
100
AcDbEntity
8
0
100
AcDbCircle
10
0.73326771653543299
20
1.83070866141734
30
0
40
0.019685039370079017
210
0
220
0
230
1
100
AcDbArc
50
180
51
270
0
LINE
5
151
100
AcDbEntity
8
0
100
AcDbLine
10
0.71358267716535395
20
1.8749053253618897
30
0
11
0.65954349353576103
21
1.9685039370078798
31
0
0
LINE
5
152
100
AcDbEntity
8
0
100
AcDbLine
10
0
20
-1.94881889763779
30
0
11
0.019685039370079017
21
-1.9685039370078798
31
0
0
LINE
5
153
100
AcDbEntity
8
0
100
AcDbLine
10
0
20
1.94881889763779
30
0
11
0.019685039370079017
21
1.9685039370078798
31
0
0
ARC
5
154
100
AcDbEntity
8
0
100
AcDbCircle
10
-0.015748031496048701
20
1.5032378535086197
30
0
40
0.023622047244094682
210
0
220
0
230
1
100
AcDbArc
50
270
51
311.81031489573229
0
ARC
5
155
100
AcDbEntity
8
0
100
AcDbCircle
10
-0.015748031496048701
20
-1.5032378535086197
30
0
40
0.023622047244093624
210
0
220
-0
230
1
100
AcDbArc
50
48.189685104265955
51
89.999999999999986
0
LINE
5
156
100
AcDbEntity
8
0
100
AcDbLine
10
-0.054345856603511697
20
-1.4796158062645299
30
0
11
-0.015748031496048694
21
-1.479615806264525
31
0
0
LINE
5
157
100
AcDbEntity
8
0
100
AcDbLine
10
-0.054345856603511697
20
1.4796158062645299
30
0
11
-0.015748031496048705
21
1.479615806264525
31
0
0
LINE
5
158
100
AcDbEntity
8
0
100
AcDbLine
10
-0.054345856603511697
20
1.4796158062645299
30
0
11
-0.098425196850394039
21
1.4914268298865898
31
0
0
LINE
5
159
100
AcDbEntity
8
0
100
AcDbLine
10
-0.054345856603511697
20
-1.4796158062645299
30
0
11
-0.098425196850394039
21
-1.4914268298865898
31
0
0
ENDSEC
0
SECTION
2
OBJECTS
0
DICTIONARY
5
C
100
AcDbDictionary
3
ACAD_GROUP
350
D
3
ACAD_MLINESTYLE
350
17
0
DICTIONARY
5
D
100
AcDbDictionary
0
DICTIONARY
5
1A
330
C
100
AcDbDictionary
0
DICTIONARY
5
17
100
AcDbDictionary
0
ENDSEC
0
EOF
