  0
SECTION
  2
HEADER
  9
$ACADVER
  1
AC1015
  9
$ACADMAINTVER
 70
     6
  9
$DWGCODEPAGE
  3
ANSI_1252
  9
$INSBASE
 10
0.0
 20
0.0
 30
0.0
  9
$EXTMIN
 10
0.0
 20
-1.2500000013
 30
0.0
  9
$EXTMAX
 10
8.1300000572
 20
1.2500000013
 30
0.0
  9
$LIMMIN
 10
0.0
 20
0.0
  9
$LIMMAX
 10
12.0
 20
9.0
  9
$ORTHOMODE
 70
     0
  9
$REGENMODE
 70
     1
  9
$FILLMODE
 70
     1
  9
$QTEXTMODE
 70
     0
  9
$MIRRTEXT
 70
     1
  9
$LTSCALE
 40
1.0
  9
$ATTMODE
 70
     1
  9
$TEXTSIZE
 40
0.125
  9
$TRACEWID
 40
0.05
  9
$TEXTSTYLE
  7
Standard
  9
$CLAYER
  8
0
  9
$CELTYPE
  6
ByLayer
  9
$CECOLOR
 62
   256
  9
$CELTSCALE
 40
1.0
  9
$DISPSILH
 70
     0
  9
$DIMSCALE
 40
1.0
  9
$DIMASZ
 40
0.13
  9
$DIMEXO
 40
0.05
  9
$DIMDLI
 40
0.38
  9
$DIMRND
 40
0.0
  9
$DIMDLE
 40
0.0
  9
$DIMEXE
 40
0.125
  9
$DIMTP
 40
0.0
  9
$DIMTM
 40
0.0
  9
$DIMTXT
 40
0.125
  9
$DIMCEN
 40
0.09
  9
$DIMTSZ
 40
0.0
  9
$DIMTOL
 70
     0
  9
$DIMLIM
 70
     0
  9
$DIMTIH
 70
     1
  9
$DIMTOH
 70
     1
  9
$DIMSE1
 70
     0
  9
$DIMSE2
 70
     0
  9
$DIMTAD
 70
     0
  9
$DIMZIN
 70
     0
  9
$DIMBLK
  1

  9
$DIMASO
 70
     1
  9
$DIMSHO
 70
     1
  9
$DIMPOST
  1

  9
$DIMAPOST
  1

  9
$DIMALT
 70
     0
  9
$DIMALTD
 70
     2
  9
$DIMALTF
 40
25.4
  9
$DIMLFAC
 40
1.0
  9
$DIMTOFL
 70
     0
  9
$DIMTVP
 40
0.0
  9
$DIMTIX
 70
     0
  9
$DIMSOXD
 70
     0
  9
$DIMSAH
 70
     0
  9
$DIMBLK1
  1

  9
$DIMBLK2
  1

  9
$DIMSTYLE
  2
Standard
  9
$DIMCLRD
 70
     0
  9
$DIMCLRE
 70
     0
  9
$DIMCLRT
 70
     0
  9
$DIMTFAC
 40
1.0
  9
$DIMGAP
 40
0.06
  9
$DIMJUST
 70
     0
  9
$DIMSD1
 70
     0
  9
$DIMSD2
 70
     0
  9
$DIMTOLJ
 70
     1
  9
$DIMTZIN
 70
     0
  9
$DIMALTZ
 70
     0
  9
$DIMALTTZ
 70
     0
  9
$DIMUPT
 70
     0
  9
$DIMDEC
 70
     2
  9
$DIMTDEC
 70
     2
  9
$DIMALTU
 70
     2
  9
$DIMALTTD
 70
     2
  9
$DIMTXSTY
  7
Standard
  9
$DIMAUNIT
 70
     0
  9
$DIMADEC
 70
     2
  9
$DIMALTRND
 40
0.0
  9
$DIMAZIN
 70
     0
  9
$DIMDSEP
 70
    46
  9
$DIMATFIT
 70
     3
  9
$DIMFRAC
 70
     0
  9
$DIMLDRBLK
  1

  9
$DIMLUNIT
 70
     2
  9
$DIMLWD
 70
    -2
  9
$DIMLWE
 70
    -2
  9
$DIMTMOVE
 70
     0
  9
$LUNITS
 70
     2
  9
$LUPREC
 70
     2
  9
$SKETCHINC
 40
0.1
  9
$FILLETRAD
 40
0.5
  9
$AUNITS
 70
     0
  9
$AUPREC
 70
     2
  9
$MENU
  1
.
  9
$ELEVATION
 40
0.0
  9
$PELEVATION
 40
0.0
  9
$THICKNESS
 40
0.0
  9
$LIMCHECK
 70
     0
  9
$CHAMFERA
 40
0.0
  9
$CHAMFERB
 40
0.0
  9
$CHAMFERC
 40
0.0
  9
$CHAMFERD
 40
0.0
  9
$SKPOLY
 70
     0
  9
$TDCREATE
 40
2458164.542421053
  9
$TDUCREATE
 40
2458164.792421053
  9
$TDUPDATE
 40
2458164.542448229
  9
$TDUUPDATE
 40
2458164.792448229
  9
$TDINDWG
 40
0.0000000116
  9
$TDUSRTIMER
 40
0.0000000116
  9
$USRTIMER
 70
     1
  9
$ANGBASE
 50
0.0
  9
$ANGDIR
 70
     0
  9
$PDMODE
 70
     0
  9
$PDSIZE
 40
-1.0
  9
$PLINEWID
 40
0.0
  9
$SPLFRAME
 70
     0
  9
$SPLINETYPE
 70
     6
  9
$SPLINESEGS
 70
     8
  9
$HANDSEED
  5
193
  9
$SURFTAB1
 70
     6
  9
$SURFTAB2
 70
     6
  9
$SURFTYPE
 70
     6
  9
$SURFU
 70
     6
  9
$SURFV
 70
     6
  9
$UCSBASE
  2

  9
$UCSNAME
  2

  9
$UCSORG
 10
0.0
 20
0.0
 30
0.0
  9
$UCSXDIR
 10
1.0
 20
0.0
 30
0.0
  9
$UCSYDIR
 10
0.0
 20
1.0
 30
0.0
  9
$UCSORTHOREF
  2

  9
$UCSORTHOVIEW
 70
     0
  9
$UCSORGTOP
 10
0.0
 20
0.0
 30
0.0
  9
$UCSORGBOTTOM
 10
0.0
 20
0.0
 30
0.0
  9
$UCSORGLEFT
 10
0.0
 20
0.0
 30
0.0
  9
$UCSORGRIGHT
 10
0.0
 20
0.0
 30
0.0
  9
$UCSORGFRONT
 10
0.0
 20
0.0
 30
0.0
  9
$UCSORGBACK
 10
0.0
 20
0.0
 30
0.0
  9
$PUCSBASE
  2

  9
$PUCSNAME
  2

  9
$PUCSORG
 10
0.0
 20
0.0
 30
0.0
  9
$PUCSXDIR
 10
1.0
 20
0.0
 30
0.0
  9
$PUCSYDIR
 10
0.0
 20
1.0
 30
0.0
  9
$PUCSORTHOREF
  2

  9
$PUCSORTHOVIEW
 70
     0
  9
$PUCSORGTOP
 10
0.0
 20
0.0
 30
0.0
  9
$PUCSORGBOTTOM
 10
0.0
 20
0.0
 30
0.0
  9
$PUCSORGLEFT
 10
0.0
 20
0.0
 30
0.0
  9
$PUCSORGRIGHT
 10
0.0
 20
0.0
 30
0.0
  9
$PUCSORGFRONT
 10
0.0
 20
0.0
 30
0.0
  9
$PUCSORGBACK
 10
0.0
 20
0.0
 30
0.0
  9
$USERI1
 70
     0
  9
$USERI2
 70
     0
  9
$USERI3
 70
     0
  9
$USERI4
 70
     0
  9
$USERI5
 70
     0
  9
$USERR1
 40
0.0
  9
$USERR2
 40
0.0
  9
$USERR3
 40
0.0
  9
$USERR4
 40
0.0
  9
$USERR5
 40
0.0
  9
$WORLDVIEW
 70
     1
  9
$SHADEDGE
 70
     3
  9
$SHADEDIF
 70
    70
  9
$TILEMODE
 70
     1
  9
$MAXACTVP
 70
    64
  9
$PINSBASE
 10
0.0
 20
0.0
 30
0.0
  9
$PLIMCHECK
 70
     0
  9
$PEXTMIN
 10
1.0000000000E+20
 20
1.0000000000E+20
 30
1.0000000000E+20
  9
$PEXTMAX
 10
-1.0000000000E+20
 20
-1.0000000000E+20
 30
-1.0000000000E+20
  9
$PLIMMIN
 10
0.0
 20
0.0
  9
$PLIMMAX
 10
12.0
 20
9.0
  9
$UNITMODE
 70
     0
  9
$VISRETAIN
 70
     1
  9
$PLINEGEN
 70
     0
  9
$PSLTSCALE
 70
     1
  9
$TREEDEPTH
 70
  3020
  9
$CMLSTYLE
  2
Standard
  9
$CMLJUST
 70
     0
  9
$CMLSCALE
 40
1.0
  9
$PROXYGRAPHICS
 70
     1
  9
$MEASUREMENT
 70
     0
  9
$CELWEIGHT
370
    -1
  9
$ENDCAPS
280
     0
  9
$JOINSTYLE
280
     0
  9
$LWDISPLAY
290
     1
  9
$INSUNITS
 70
     1
  9
$HYPERLINKBASE
  1

  9
$STYLESHEET
  1

  9
$XEDIT
290
     1
  9
$CEPSNTYPE
380
     0
  9
$PSTYLEMODE
290
     1
  9
$FINGERPRINTGUID
  2
{E061CA3D-49B9-4122-8603-E11A8D196E2F}
  9
$VERSIONGUID
  2
{FAEB1C32-E019-11D5-929B-00C0DF256EC4}
  9
$EXTNAMES
290
     1
  9
$PSVPSCALE
 40
0.0
  9
$OLESTARTUP
290
     0
  0
ENDSEC
  0
SECTION
  2
CLASSES
  0
CLASS
  1
ACDBDICTIONARYWDFLT
  2
AcDbDictionaryWithDefault
  3
ObjectDBX Classes
 90
        0
280
     0
281
     0
  0
CLASS
  1
VISUALSTYLE
  2
AcDbVisualStyle
  3
ObjectDBX Classes
 90
     4095
280
     0
281
     0
  0
CLASS
  1
MATERIAL
  2
AcDbMaterial
  3
ObjectDBX Classes
 90
     1153
280
     0
281
     0
  0
CLASS
  1
SCALE
  2
AcDbScale
  3
ObjectDBX Classes
 90
     1153
280
     0
281
     0
  0
CLASS
  1
TABLESTYLE
  2
AcDbTableStyle
  3
ObjectDBX Classes
 90
     4095
280
     0
281
     0
  0
CLASS
  1
MLEADERSTYLE
  2
AcDbMLeaderStyle
  3
ACDB_MLEADERSTYLE_CLASS
 90
     4095
280
     0
281
     0
  0
CLASS
  1
SUN
  2
AcDbSun
  3
SCENEOE
 90
     1153
280
     0
281
     0
  0
CLASS
  1
ACDBPLACEHOLDER
  2
AcDbPlaceHolder
  3
ObjectDBX Classes
 90
        0
280
     0
281
     0
  0
CLASS
  1
LAYOUT
  2
AcDbLayout
  3
ObjectDBX Classes
 90
        0
280
     0
281
     0
  0
ENDSEC
  0
SECTION
  2
TABLES
  0
TABLE
  2
VPORT
  5
8
330
0
100
AcDbSymbolTable
 70
     1
  0
VPORT
  5
29
330
8
100
AcDbSymbolTableRecord
100
AcDbViewportTableRecord
  2
*Active
 70
     0
 10
0.0
 20
0.0
 11
1.0
 21
1.0
 12
4.0650000286
 22
0.0
 13
0.0
 23
0.0
 14
0.5
 24
0.5
 15
0.5
 25
0.5
 16
0.0
 26
0.0
 36
1.0
 17
0.0
 27
0.0
 37
0.0
 40
2.5500000027
 41
3.2520000195
 42
50.0
 43
0.0
 44
0.0
 50
0.0
 51
0.0
 71
     0
 72
   100
 73
     1
 74
     3
 75
     0
 76
     0
 77
     0
 78
     0
281
     0
 65
     1
110
0.0
120
0.0
130
0.0
111
1.0
121
0.0
131
0.0
112
0.0
122
1.0
132
0.0
 79
     0
146
0.0
  0
ENDTAB
  0
TABLE
  2
LTYPE
  5
5
330
0
100
AcDbSymbolTable
 70
     6
  0
LTYPE
  5
14
330
5
100
AcDbSymbolTableRecord
100
AcDbLinetypeTableRecord
  2
ByBlock
 70
     0
  3

 72
    65
 73
     0
 40
0.0
  0
LTYPE
  5
15
330
5
100
AcDbSymbolTableRecord
100
AcDbLinetypeTableRecord
  2
ByLayer
 70
     0
  3

 72
    65
 73
     0
 40
0.0
  0
LTYPE
  5
16
330
5
100
AcDbSymbolTableRecord
100
AcDbLinetypeTableRecord
  2
Continuous
 70
     0
  3
Solid line
 72
    65
 73
     0
 40
0.0
  0
LTYPE
  5
6E
330
5
100
AcDbSymbolTableRecord
100
AcDbLinetypeTableRecord
  2
HIDDEN
 70
     0
  3
Hidden __ __ __ __ __ __ __ __ __ __ __ __ __ __
 72
    65
 73
     2
 40
0.075
 49
0.05
 74
     0
 49
-0.025
 74
     0
  0
LTYPE
  5
6F
330
5
100
AcDbSymbolTableRecord
100
AcDbLinetypeTableRecord
  2
PHANTOM
 70
     0
  3
Phantom ______  __  __  ______  __  __  ______
 72
    65
 73
     6
 40
0.5
 49
0.25
 74
     0
 49
-0.05
 74
     0
 49
0.05
 74
     0
 49
-0.05
 74
     0
 49
0.05
 74
     0
 49
-0.05
 74
     0
  0
LTYPE
  5
70
330
5
100
AcDbSymbolTableRecord
100
AcDbLinetypeTableRecord
  2
CENTER
 70
     0
  3
Center ____ _ ____ _ ____ _ ____ _ ____ _ ____
 72
    65
 73
     4
 40
0.4
 49
0.25
 74
     0
 49
-0.05
 74
     0
 49
0.05
 74
     0
 49
-0.05
 74
     0
  0
LTYPE
  5
71
330
5
100
AcDbSymbolTableRecord
100
AcDbLinetypeTableRecord
  2
CENTERX2
 70
     0
  3
Center (2x) ________  __  ________  __  _____
 72
    65
 73
     4
 40
0.8
 49
0.5
 74
     0
 49
-0.1
 74
     0
 49
0.1
 74
     0
 49
-0.1
 74
     0
  0
LTYPE
  5
72
330
5
100
AcDbSymbolTableRecord
100
AcDbLinetypeTableRecord
  2
DOT2
 70
     0
  3
Dot (.5x) ........................................
 72
    65
 73
     2
 40
0.025
 49
0.0
 74
     0
 49
-0.025
 74
     0
  0
ENDTAB
  0
TABLE
  2
LAYER
  5
2
330
0
100
AcDbSymbolTable
 70
     1
  0
LAYER
  5
10
330
2
100
AcDbSymbolTableRecord
100
AcDbLayerTableRecord
  2
0
 70
     0
 62
     7
  6
Continuous
370
    -3
390
F
  0
ENDTAB
  0
TABLE
  2
STYLE
  5
3
330
0
100
AcDbSymbolTable
 70
     1
  0
STYLE
  5
11
330
3
100
AcDbSymbolTableRecord
100
AcDbTextStyleTableRecord
  2
Standard
 70
     0
 40
0.0
 41
1.0
 50
0.0
 71
     0
 42
0.125
  3
txt
  4

  0
ENDTAB
  0
TABLE
  2
VIEW
  5
6
330
0
100
AcDbSymbolTable
 70
     0
  0
ENDTAB
  0
TABLE
  2
UCS
  5
7
330
0
100
AcDbSymbolTable
 70
     0
  0
ENDTAB
  0
TABLE
  2
APPID
  5
9
330
0
100
AcDbSymbolTable
 70
     1
  0
APPID
  5
12
330
9
100
AcDbSymbolTableRecord
100
AcDbRegAppTableRecord
  2
ACAD
 70
     0
  0
ENDTAB
  0
TABLE
  2
DIMSTYLE
  5
A
330
0
100
AcDbSymbolTable
 70
     1
100
AcDbDimStyleTable
  0
DIMSTYLE
105
27
330
A
100
AcDbSymbolTableRecord
100
AcDbDimStyleTableRecord
  2
Standard
 70
     0
178
     0
340
11
  0
ENDTAB
  0
TABLE
  2
BLOCK_RECORD
  5
1
330
0
100
AcDbSymbolTable
 70
     1
  0
BLOCK_RECORD
  5
1F
330
1
100
AcDbSymbolTableRecord
100
AcDbBlockTableRecord
  2
*Model_Space
340
22
  0
BLOCK_RECORD
  5
1B
330
1
100
AcDbSymbolTableRecord
100
AcDbBlockTableRecord
  2
*Paper_Space
340
1E
  0
BLOCK_RECORD
  5
23
330
1
100
AcDbSymbolTableRecord
100
AcDbBlockTableRecord
  2
*Paper_Space0
340
26
  0
ENDTAB
  0
ENDSEC
  0
SECTION
  2
BLOCKS
  0
BLOCK
  5
20
330
1F
100
AcDbEntity
  8
0
100
AcDbBlockBegin
  2
*Model_Space
 70
     0
 10
0.0
 20
0.0
 30
0.0
  3
*Model_Space
  1

  0
ENDBLK
  5
21
330
1F
100
AcDbEntity
  8
0
100
AcDbBlockEnd
  0
BLOCK
  5
1C
330
1B
100
AcDbEntity
 67
     1
  8
0
100
AcDbBlockBegin
  2
*Paper_Space
 70
     0
 10
0.0
 20
0.0
 30
0.0
  3
*Paper_Space
  1

  0
ENDBLK
  5
1D
330
1B
100
AcDbEntity
 67
     1
  8
0
100
AcDbBlockEnd
  0
BLOCK
  5
24
330
23
100
AcDbEntity
  8
0
100
AcDbBlockBegin
  2
*Paper_Space0
 70
     0
 10
0.0
 20
0.0
 30
0.0
  3
*Paper_Space0
  1

  0
ENDBLK
  5
25
330
23
100
AcDbEntity
  8
0
100
AcDbBlockEnd
  0
ENDSEC
  0
SECTION
  2
ENTITIES
  0
SPLINE
  5
A0
330
1F
100
AcDbEntity
  8
0
  6
Continuous
 62
     7
370
    25
100
AcDbSpline
210
0.0
220
0.0
230
1.0
 70
     8
 71
     3
 72
    10
 73
     6
 74
     0
 42
0.000000001
 43
0.00000001
 40
0.0
 40
0.0
 40
0.0
 40
0.0
 40
0.5
 40
0.5
 40
1.0
 40
1.0
 40
1.0
 40
1.0
 10
3.408750000000001
 20
0.3375705241635019
 30
0.0
 10
3.416447949434081
 20
0.3375705241635018
 30
0.0
 10
3.423953075505697
 20
0.3376880162911953
 30
0.0
 10
3.435076089423633
 20
0.3379698979384922
 30
0.0
 10
3.438714229860691
 20
0.338104005156116
 30
0.0
 10
3.43971283880623
 20
0.338122361007504
 30
0.0
  0
SPLINE
  5
A1
330
1F
100
AcDbEntity
  8
0
  6
Continuous
 62
     7
370
    25
100
AcDbSpline
210
0.0
220
0.0
230
1.0
 70
    24
 71
     3
 72
    31
 73
    27
 74
     0
 42
0.000000001
 43
0.00000001
 40
0.0
 40
0.0
 40
0.0
 40
0.0
 40
0.0132745871650654
 40
0.0265362312393219
 40
0.0397888034570981
 40
0.0530361830056869
 40
0.0662822536344908
 40
0.0795309002440128
 40
0.092786005469798
 40
0.1060514462763132
 40
0.1193310905756739
 40
0.1813612685667695
 40
0.243404258833693
 40
0.3071328634181342
 40
0.3708746311209129
 40
0.5000016144466681
 40
0.6291285977724234
 40
0.6928572028182511
 40
0.7565989709780838
 40
0.8186291496545699
 40
0.880672140609604
 40
0.9045583379138018
 40
0.9284115859968007
 40
0.9522545131286763
 40
0.9761097769498038
 40
1.0
 40
1.0
 40
1.0
 40
1.0
 10
3.44
 20
1.21875
 30
0.0
 10
3.44
 20
1.218715954241739
 30
0.0
 10
3.44
 20
1.218647895920777
 30
0.0
 10
3.440000000000001
 20
1.218095086332874
 30
0.0
 10
3.44
 20
1.217212190976972
 30
0.0
 10
3.44
 20
1.215966942964487
 30
0.0
 10
3.44
 20
1.214367983043875
 30
0.0
 10
3.44
 20
1.21241298819219
 30
0.0
 10
3.44
 20
1.210102616350482
 30
0.0
 10
3.44
 20
1.207436563484021
 30
0.0
 10
3.440000000000001
 20
1.200720146975662
 30
0.0
 10
3.44
 20
1.186861840379579
 30
0.0
 10
3.440000000000002
 20
1.160222211992518
 30
0.0
 10
3.44
 20
1.125708979161328
 30
0.0
 10
3.440000000000002
 20
1.068758826648893
 30
0.0
 10
3.439999999999999
 20
0.9785537641251879
 30
0.0
 10
3.440000000000001
 20
0.8657568972536256
 30
0.0
 10
3.44
 20
0.7644875316041628
 30
0.0
 10
3.440000000000001
 20
0.6845469364925001
 30
0.0
 10
3.44
 20
0.600874395285175
 30
0.0
 10
3.440000000000002
 20
0.5318755320660589
 30
0.0
 10
3.44
 20
0.4793651130607234
 30
0.0
 10
3.440000000000001
 20
0.4446718910973826
 30
0.0
 10
3.44
 20
0.4095664798880829
 30
0.0
 10
3.440000000000001
 20
0.3740772232652242
 30
0.0
 10
3.44
 20
0.3501149228177907
 30
0.0
 10
3.44
 20
0.3381250000000001
 30
0.0
  0
SPLINE
  5
A2
330
1F
100
AcDbEntity
  8
0
  6
Continuous
 62
     7
370
    25
100
AcDbSpline
210
0.0
220
0.0
230
1.0
 70
     8
 71
     3
 72
    14
 73
    10
 74
     0
 42
0.000000001
 43
0.00000001
 40
0.0
 40
0.0
 40
0.0
 40
0.0
 40
0.0000281800130593
 40
0.0000281800130593
 40
0.0000281800130593
 40
0.0000563600240375
 40
0.0000563600240375
 40
0.0000563600240375
 40
0.0001120750367963
 40
0.0001120750367963
 40
0.0001120750367963
 40
0.0001120750367963
 10
3.439712838806231
 20
0.3381223610075038
 30
0.0
 10
3.439760909296707
 20
0.3381232446114247
 30
0.0
 10
3.439802978008998
 20
0.3381238305441036
 30
0.0
 10
3.4398390074875
 20
0.3381242264977871
 30
0.0
 10
3.439875036964452
 20
0.3381246224514535
 30
0.0
 10
3.43990503694335
 20
0.3381248285766125
 30
0.0
 10
3.439928982322868
 20
0.3381249368694668
 30
0.0
 10
3.439976306511512
 20
0.3381251508928636
 30
0.0
 10
3.44
 20
0.338125
 30
0.0
 10
3.44
 20
0.338125
 30
0.0
  0
SPLINE
  5
A3
330
1F
100
AcDbEntity
  8
0
  6
Continuous
 62
     7
370
    25
100
AcDbSpline
210
0.0
220
0.0
230
1.0
 70
     8
 71
     3
 72
    14
 73
    10
 74
     0
 42
0.000000001
 43
0.00000001
 40
0.0
 40
0.0
 40
0.0
 40
0.0
 40
0.0000281800070556
 40
0.0000281800070556
 40
0.0000281800070556
 40
0.0000563600180038
 40
0.0000563600180038
 40
0.0000563600180038
 40
0.0001120750579201
 40
0.0001120750579201
 40
0.0001120750579201
 40
0.0001120750579201
 10
2.815
 20
0.3381250000000001
 30
0.0
 10
2.815
 20
0.3381250000000001
 30
0.0
 10
2.815006061066895
 20
0.3381250342686901
 30
0.0
 10
2.815018180328217
 20
0.3381250448169361
 30
0.0
 10
2.815030299590551
 20
0.3381250553651829
 30
0.0
 10
2.815048480360292
 20
0.3381250420815922
 30
0.0
 10
2.815072708904773
 20
0.3381249291018553
 30
0.0
 10
2.81512059272883
 20
0.3381247058155639
 30
0.0
 10
2.815192157607737
 20
0.3381241073084104
 30
0.0
 10
2.81528716119377
 20
0.338122361007504
 30
0.0
  0
SPLINE
  5
A4
330
1F
100
AcDbEntity
  8
0
  6
Continuous
 62
     7
370
    25
100
AcDbSpline
210
0.0
220
0.0
230
1.0
 70
    24
 71
     3
 72
    31
 73
    27
 74
     0
 42
0.000000001
 43
0.00000001
 40
0.0
 40
0.0
 40
0.0
 40
0.0
 40
0.0132758673967845
 40
0.0265384740681009
 40
0.0397916895589073
 40
0.0530393916434241
 40
0.0662854629380046
 40
0.0795337874927837
 40
0.092788247377029
 40
0.1060527192731892
 40
0.1193310710945421
 40
0.1813612522048866
 40
0.2434042455886107
 40
0.3071328533792114
 40
0.3708746242826217
 40
0.5000016140984282
 40
0.629128603914235
 40
0.6928572121623862
 40
0.7565989835266719
 40
0.8186291653211821
 40
0.8806721593942523
 40
0.9045562627148236
 40
0.9284084653949436
 40
0.952251393725218
 40
0.9761077003847777
 40
0.9999999999999999
 40
0.9999999999999999
 40
0.9999999999999999
 40
0.9999999999999999
 10
2.815
 20
0.3381250000000001
 30
0.0
 10
2.815
 20
0.3447952254108029
 30
0.0
 10
2.815
 20
0.3581290136147929
 30
0.0
 10
2.815000000000001
 20
0.3779907980587855
 30
0.0
 10
2.815
 20
0.3977351883273569
 30
0.0
 10
2.815000000000001
 20
0.417353231944223
 30
0.0
 10
2.815
 20
0.4368473146705308
 30
0.0
 10
2.815
 20
0.4562168072430923
 30
0.0
 10
2.815000000000002
 20
0.4754618119740572
 30
0.0
 10
2.815
 20
0.4945825198446701
 30
0.0
 10
2.815000000000002
 20
0.5368148453768571
 30
0.0
 10
2.815
 20
0.6008690560345684
 30
0.0
 10
2.815
 20
0.6845355322747244
 30
0.0
 10
2.815
 20
0.7644821432158722
 30
0.0
 10
2.815
 20
0.8657522859639859
 30
0.0
 10
2.815
 20
0.9785537708281209
 30
0.0
 10
2.815000000000001
 20
1.068755119342937
 30
0.0
 10
2.815
 20
1.125706345070127
 30
0.0
 10
2.815000000000001
 20
1.160217948744668
 30
0.0
 10
2.815000000000002
 20
1.186860490870849
 30
0.0
 10
2.815
 20
1.201788698711399
 30
0.0
 10
2.815000000000002
 20
1.209726514103743
 30
0.0
 10
2.815000000000001
 20
1.213763132446037
 30
0.0
 10
2.815000000000001
 20
1.216625439481056
 30
0.0
 10
2.815
 20
1.2184178856509
 30
0.0
 10
2.815
 20
1.218639239598011
 30
0.0
 10
2.815
 20
1.21875
 30
0.0
  0
SPLINE
  5
A5
330
1F
100
AcDbEntity
  8
0
  6
Continuous
 62
     7
370
    25
100
AcDbSpline
210
0.0
220
0.0
230
1.0
 70
     8
 71
     3
 72
    10
 73
     6
 74
     0
 42
0.000000001
 43
0.00000001
 40
0.0
 40
0.0
 40
0.0
 40
0.0
 40
0.5
 40
0.5
 40
1.0
 40
1.0
 40
1.0
 40
1.0
 10
2.81528716119377
 20
0.338122361007504
 30
0.0
 10
2.816287835276539
 20
0.3381039671959605
 30
0.0
 10
2.819868702713796
 20
0.3379713208227175
 30
0.0
 10
2.831107581223235
 20
0.3376864592705502
 30
0.0
 10
2.838546628332704
 20
0.3375705241635011
 30
0.0
 10
2.84625
 20
0.337570524163501
 30
0.0
  0
SPLINE
  5
A6
330
1F
100
AcDbEntity
  8
0
  6
Continuous
 62
     7
370
    25
100
AcDbSpline
210
0.0
220
0.0
230
1.0
 70
     8
 71
     3
 72
    10
 73
     6
 74
     0
 42
0.000000001
 43
0.00000001
 40
0.0
 40
0.0
 40
0.0
 40
0.0
 40
0.5
 40
0.5
 40
1.0
 40
1.0
 40
1.0
 40
1.0
 10
2.84625
 20
-0.337570524163502
 30
0.0
 10
2.838552050267631
 20
-0.3375705241635021
 30
0.0
 10
2.831046928021411
 20
-0.3376880132479536
 30
0.0
 10
2.819923909497275
 20
-0.3379699048825386
 30
0.0
 10
2.816285770236461
 20
-0.3381040051543314
 30
0.0
 10
2.81528716119377
 20
-0.338122361007504
 30
0.0
  0
SPLINE
  5
A7
330
1F
100
AcDbEntity
  8
0
  6
Continuous
 62
     7
370
    25
100
AcDbSpline
210
0.0
220
0.0
230
1.0
 70
    24
 71
     3
 72
    31
 73
    27
 74
     0
 42
0.000000001
 43
0.00000001
 40
0.0
 40
0.0
 40
0.0
 40
0.0
 40
0.0132745871639651
 40
0.0265362312373947
 40
0.0397888034546187
 40
0.0530361830029309
 40
0.0662822536317344
 40
0.0795309002415338
 40
0.0927860054678738
 40
0.1060514462752212
 40
0.1193310905756919
 40
0.181361268566179
 40
0.2434042588337089
 40
0.3071328634166147
 40
0.3708746311209231
 40
0.5000016144466776
 40
0.629128597772432
 40
0.6928572028180996
 40
0.7565989709780783
 40
0.8186291496534912
 40
0.8806721406096046
 40
0.9045583379138024
 40
0.9284115859968012
 40
0.9522545131286764
 40
0.9761097769498039
 40
1.0
 40
1.0
 40
1.0
 40
1.0
 10
2.815000000000001
 20
-1.21875
 30
0.0
 10
2.815
 20
-1.218715954241825
 30
0.0
 10
2.815
 20
-1.218647895921034
 30
0.0
 10
2.815000000000001
 20
-1.21809508633331
 30
0.0
 10
2.815000000000001
 20
-1.217212190977529
 30
0.0
 10
2.815000000000001
 20
-1.215966942965101
 30
0.0
 10
2.815
 20
-1.214367983044487
 30
0.0
 10
2.815
 20
-1.212412988192735
 30
0.0
 10
2.815000000000002
 20
-1.210102616350901
 30
0.0
 10
2.815
 20
-1.207436563484246
 30
0.0
 10
2.815000000000001
 20
-1.200720146975824
 30
0.0
 10
2.815000000000002
 20
-1.186861840379598
 30
0.0
 10
2.815
 20
-1.160222211992897
 30
0.0
 10
2.815
 20
-1.125708979161488
 30
0.0
 10
2.815
 20
-1.068758826649415
 30
0.0
 10
2.815
 20
-0.9785537641251016
 30
0.0
 10
2.815000000000002
 20
-0.8657568972538452
 30
0.0
 10
2.815
 20
-0.7644875316039597
 30
0.0
 10
2.815000000000001
 20
-0.6845469364930528
 30
0.0
 10
2.815000000000001
 20
-0.6008743952857695
 30
0.0
 10
2.815
 20
-0.531875532066566
 30
0.0
 10
2.815000000000001
 20
-0.479365113060725
 30
0.0
 10
2.815
 20
-0.4446718910973823
 30
0.0
 10
2.815000000000001
 20
-0.4095664798880832
 30
0.0
 10
2.815
 20
-0.3740772232652242
 30
0.0
 10
2.815
 20
-0.3501149228177907
 30
0.0
 10
2.815000000000001
 20
-0.3381250000000002
 30
0.0
  0
SPLINE
  5
A8
330
1F
100
AcDbEntity
  8
0
  6
Continuous
 62
     7
370
    25
100
AcDbSpline
210
0.0
220
0.0
230
1.0
 70
     8
 71
     3
 72
    14
 73
    10
 74
     0
 42
0.000000001
 43
0.00000001
 40
0.0
 40
0.0
 40
0.0
 40
0.0
 40
0.0000281800130593
 40
0.0000281800130593
 40
0.0000281800130593
 40
0.0000563600240374
 40
0.0000563600240374
 40
0.0000563600240374
 40
0.0001120750367962
 40
0.0001120750367962
 40
0.0001120750367962
 40
0.0001120750367962
 10
2.81528716119377
 20
-0.3381223610075043
 30
0.0
 10
2.815239090703294
 20
-0.3381232446114248
 30
0.0
 10
2.815197021991003
 20
-0.3381238305441026
 30
0.0
 10
2.8151609925125
 20
-0.3381242264977859
 30
0.0
 10
2.815124963035549
 20
-0.3381246224514522
 30
0.0
 10
2.815094963056651
 20
-0.3381248285766122
 30
0.0
 10
2.815071017677133
 20
-0.3381249368694664
 30
0.0
 10
2.815023693488488
 20
-0.3381251508928633
 30
0.0
 10
2.815000000000002
 20
-0.3381249999999993
 30
0.0
 10
2.815000000000002
 20
-0.3381249999999993
 30
0.0
  0
SPLINE
  5
A9
330
1F
100
AcDbEntity
  8
0
  6
Continuous
 62
     7
370
    25
100
AcDbSpline
210
0.0
220
0.0
230
1.0
 70
     8
 71
     3
 72
    14
 73
    10
 74
     0
 42
0.000000001
 43
0.00000001
 40
0.0
 40
0.0
 40
0.0
 40
0.0
 40
0.0000281800070556
 40
0.0000281800070556
 40
0.0000281800070556
 40
0.0000563600180038
 40
0.0000563600180038
 40
0.0000563600180038
 40
0.0001120750579201
 40
0.0001120750579201
 40
0.0001120750579201
 40
0.0001120750579201
 10
3.44
 20
-0.3381250000000001
 30
0.0
 10
3.44
 20
-0.3381250000000001
 30
0.0
 10
3.439993938933106
 20
-0.338125034268691
 30
0.0
 10
3.439981819671784
 20
-0.3381250448169371
 30
0.0
 10
3.43996970040945
 20
-0.3381250553651841
 30
0.0
 10
3.439951519639708
 20
-0.3381250420815921
 30
0.0
 10
3.439927291095226
 20
-0.3381249291018552
 30
0.0
 10
3.43987940727117
 20
-0.338124705815564
 30
0.0
 10
3.439807842392264
 20
-0.3381241073084109
 30
0.0
 10
3.43971283880623
 20
-0.338122361007504
 30
0.0
  0
SPLINE
  5
AA
330
1F
100
AcDbEntity
  8
0
  6
Continuous
 62
     7
370
    25
100
AcDbSpline
210
0.0
220
0.0
230
1.0
 70
    24
 71
     3
 72
    31
 73
    27
 74
     0
 42
0.000000001
 43
0.00000001
 40
0.0
 40
0.0
 40
0.0
 40
0.0
 40
0.0132758673960763
 40
0.0265384740668619
 40
0.0397916895573145
 40
0.0530393916416546
 40
0.0662854629362353
 40
0.0795337874911909
 40
0.0927882473757883
 40
0.1060527192724754
 40
0.1193310710945295
 40
0.1813612522002019
 40
0.2434042455885913
 40
0.3071328533749512
 40
0.3708746242826136
 40
0.5000016140984214
 40
0.6291286039142293
 40
0.6928572121614144
 40
0.7565989835266682
 40
0.8186291653214453
 40
0.8806721593942562
 40
0.9045562627152508
 40
0.9284084653955833
 40
0.9522513937258578
 40
0.9761077003852046
 40
1.0
 40
1.0
 40
1.0
 40
1.0
 10
3.440000000000001
 20
-0.3381250000000002
 30
0.0
 10
3.44
 20
-0.3447952254104465
 30
0.0
 10
3.440000000000001
 20
-0.3581290136138126
 30
0.0
 10
3.439999999999998
 20
-0.3779907980570021
 30
0.0
 10
3.440000000000001
 20
-0.3977351883250386
 30
0.0
 10
3.44
 20
-0.4173532319416363
 30
0.0
 10
3.44
 20
-0.4368473146679431
 30
0.0
 10
3.44
 20
-0.4562168072407701
 30
0.0
 10
3.440000000000002
 20
-0.4754618119722696
 30
0.0
 10
3.44
 20
-0.4945825198436778
 30
0.0
 10
3.44
 20
-0.5368148453744106
 30
0.0
 10
3.439999999999998
 20
-0.6008690560322767
 30
0.0
 10
3.440000000000002
 20
-0.6845355322708642
 30
0.0
 10
3.44
 20
-0.764482143214323
 30
0.0
 10
3.440000000000002
 20
-0.8657522859623814
 30
0.0
 10
3.44
 20
-0.9785537708281699
 30
0.0
 10
3.440000000000002
 20
-1.068755119342635
 30
0.0
 10
3.44
 20
-1.125706345069979
 30
0.0
 10
3.44
 20
-1.160217948744515
 30
0.0
 10
3.44
 20
-1.186860490871088
 30
0.0
 10
3.440000000000002
 20
-1.201788698711518
 30
0.0
 10
3.44
 20
-1.209726514103717
 30
0.0
 10
3.440000000000002
 20
-1.213763132446024
 30
0.0
 10
3.44
 20
-1.216625439481045
 30
0.0
 10
3.440000000000001
 20
-1.218417885650896
 30
0.0
 10
3.44
 20
-1.21863923959801
 30
0.0
 10
3.44
 20
-1.21875
 30
0.0
  0
SPLINE
  5
AB
330
1F
100
AcDbEntity
  8
0
  6
Continuous
 62
     7
370
    25
100
AcDbSpline
210
0.0
220
0.0
230
1.0
 70
     8
 71
     3
 72
    10
 73
     6
 74
     0
 42
0.000000001
 43
0.00000001
 40
0.0
 40
0.0
 40
0.0
 40
0.0
 40
0.5
 40
0.5
 40
1.0
 40
1.0
 40
1.0
 40
1.0
 10
3.439712838806231
 20
-0.338122361007505
 30
0.0
 10
3.438712347443601
 20
-0.3381039705546143
 30
0.0
 10
3.435124079709578
 20
-0.3379660551054501
 30
0.0
 10
3.423895501627976
 20
-0.3377070749969239
 30
0.0
 10
3.416452460412952
 20
-0.3375705241635011
 30
0.0
 10
3.408750000000001
 20
-0.337570524163501
 30
0.0
  0
SPLINE
  5
AC
330
1F
100
AcDbEntity
  8
0
  6
Continuous
 62
     7
370
    25
100
AcDbSpline
210
0.0
220
0.0
230
1.0
 70
    24
 71
     3
 72
    10
 73
     6
 74
     0
 42
0.000000001
 43
0.00000001
 40
0.0219624586792745
 40
0.0219624586792745
 40
0.0219624586792745
 40
0.0219624586792745
 40
0.438074616547517
 40
0.438074616547517
 40
0.463018709885807
 40
0.463018709885807
 40
0.463018709885807
 40
0.463018709885807
 10
2.993323249435425
 20
0.3225000000000001
 30
0.0
 10
3.021450294230935
 20
0.3225000000000001
 30
0.0
 10
3.04775712436979
 20
0.3225000000000001
 30
0.0
 10
3.07402350539051
 20
0.3225000000000001
 30
0.0
 10
3.0755092886698
 20
0.3225000000000001
 30
0.0
 10
3.07699507194909
 20
0.3225000000000001
 30
0.0
  0
SPLINE
  5
AD
330
1F
100
AcDbEntity
  8
0
  6
Continuous
 62
     7
370
    25
100
AcDbSpline
210
0.0
220
0.0
230
1.0
 70
     8
 71
     3
 72
    11
 73
     7
 74
     0
 42
0.000000001
 43
0.00000001
 40
0.0
 40
0.0
 40
0.0
 40
0.0
 40
0.0002648610464132
 40
0.0002648610464132
 40
0.0002648610464132
 40
0.0005297221217628
 40
0.0005297221217628
 40
0.0005297221217628
 40
0.0005297221217628
 10
2.993323249666579
 20
0.3224999997900417
 30
0.0
 10
2.994771156100688
 20
0.3250121350362185
 30
0.0
 10
2.996219588224906
 20
0.3275240788295628
 30
0.0
 10
2.997668542153805
 20
0.3300358323354828
 30
0.0
 10
2.999117496241193
 20
0.3325475861161416
 30
0.0
 10
3.000566972172819
 20
0.3350591496778947
 30
0.0
 10
3.002016966138396
 20
0.3375705241635021
 30
0.0
  0
SPLINE
  5
AF
330
1F
100
AcDbEntity
  8
0
  6
Continuous
 62
     7
370
    25
100
AcDbSpline
210
0.0
220
0.0
230
1.0
 70
     8
 71
     3
 72
    14
 73
    10
 74
     0
 42
0.000000001
 43
0.00000001
 40
0.0000000000000244
 40
0.0000000000000244
 40
0.0000000000000244
 40
0.0000000000000244
 40
0.0010456834464638
 40
0.0010456834464638
 40
0.0010456834464638
 40
0.0027198279364294
 40
0.0027198279364294
 40
0.0027198279364294
 40
0.004393978114705
 40
0.004393978114705
 40
0.004393978114705
 40
0.004393978114705
 10
3.002500000513958
 20
0.3379877284813832
 30
0.0
 10
3.009167372246451
 20
0.3379851750683116
 30
0.0
 10
3.015829206133815
 20
0.3379824939496313
 30
0.0
 10
3.022484998938449
 20
0.3379796977664725
 30
0.0
 10
3.033140954368517
 20
0.3379752210641487
 30
0.0
 10
3.04378145464377
 20
0.3379704569757069
 30
0.0
 10
3.054404105890811
 20
0.3379653784411742
 30
0.0
 10
3.065026792339094
 20
0.3379602998898124
 30
0.0
 10
3.075631596383932
 20
0.3379552778999132
 30
0.0
 10
3.08621578968218
 20
0.3379489756194815
 30
0.0
  0
SPLINE
  5
B1
330
1F
100
AcDbEntity
  8
0
  6
Continuous
 62
     7
370
    25
100
AcDbSpline
210
0.0
220
0.0
230
1.0
 70
     8
 71
     3
 72
    11
 73
     7
 74
     0
 42
0.000000001
 43
0.00000001
 40
0.0
 40
0.0
 40
0.0
 40
0.0
 40
0.0002591601485929
 40
0.0002591601485929
 40
0.0002591601485929
 40
0.0005183203480513
 40
0.0005183203480513
 40
0.0005183203480513
 40
0.0005183203480513
 10
3.085594031827824
 20
0.3374121117535729
 30
0.0
 10
3.084159529531455
 20
0.3349272628851848
 30
0.0
 10
3.082725666542025
 20
0.3324421743018038
 30
0.0
 10
3.081292490698774
 20
0.3299568285005333
 30
0.0
 10
3.07985931457754
 20
0.3274714822171966
 30
0.0
 10
3.078426825516141
 20
0.3249858785977165
 30
0.0
 10
3.07699507194909
 20
0.3224999999999987
 30
0.0
  0
SPLINE
  5
B2
330
1F
100
AcDbEntity
  8
0
  6
Continuous
 62
     7
370
    25
100
AcDbSpline
210
0.0
220
0.0
230
1.0
 70
     8
 71
     3
 72
    14
 73
    10
 74
     0
 42
0.000000001
 43
0.00000001
 40
0.0000000000000382
 40
0.0000000000000382
 40
0.0000000000000382
 40
0.0000000000000382
 40
0.0010456834464643
 40
0.0010456834464643
 40
0.0010456834464643
 40
0.0027198279364297
 40
0.0027198279364297
 40
0.0027198279364297
 40
0.0043939781147042
 40
0.0043939781147042
 40
0.0043939781147042
 40
0.0043939781147042
 10
3.252499999486045
 20
-0.3379877284813753
 30
0.0
 10
3.24583262775355
 20
-0.3379851750683064
 30
0.0
 10
3.239170793866181
 20
-0.3379824939496268
 30
0.0
 10
3.232515001061546
 20
-0.3379796977664708
 30
0.0
 10
3.221859045631478
 20
-0.3379752210641516
 30
0.0
 10
3.211218545356227
 20
-0.3379704569757116
 30
0.0
 10
3.200595894109187
 20
-0.3379653784411789
 30
0.0
 10
3.189973207660904
 20
-0.337960299889817
 30
0.0
 10
3.179368403616067
 20
-0.337955277899918
 30
0.0
 10
3.168784210317818
 20
-0.3379489756194828
 30
0.0
  0
SPLINE
  5
B4
330
1F
100
AcDbEntity
  8
0
  6
Continuous
 62
     7
370
    25
100
AcDbSpline
210
0.0
220
0.0
230
1.0
 70
     8
 71
     3
 72
    11
 73
     7
 74
     0
 42
0.000000001
 43
0.00000001
 40
0.0
 40
0.0
 40
0.0
 40
0.0
 40
0.0002591601485929
 40
0.0002591601485929
 40
0.0002591601485929
 40
0.0005183203480513
 40
0.0005183203480513
 40
0.0005183203480513
 40
0.0005183203480513
 10
3.169405968172176
 20
-0.3374121117535733
 30
0.0
 10
3.170840470468545
 20
-0.3349272628851851
 30
0.0
 10
3.172274333457976
 20
-0.3324421743018044
 30
0.0
 10
3.173707509301225
 20
-0.3299568285005335
 30
0.0
 10
3.175140685422459
 20
-0.3274714822171964
 30
0.0
 10
3.176573174483849
 20
-0.3249858785977126
 30
0.0
 10
3.178004928050911
 20
-0.3224999999999987
 30
0.0
  0
SPLINE
  5
B5
330
1F
100
AcDbEntity
  8
0
  6
Continuous
 62
     7
370
    25
100
AcDbSpline
210
0.0
220
0.0
230
1.0
 70
    24
 71
     3
 72
    10
 73
     6
 74
     0
 42
0.000000001
 43
0.00000001
 40
0.0219624588472736
 40
0.0219624588472736
 40
0.0219624588472736
 40
0.0219624588472736
 40
0.438074616547523
 40
0.438074616547523
 40
0.46301870988558
 40
0.46301870988558
 40
0.46301870988558
 40
0.46301870988558
 10
3.261676750530609
 20
-0.3225
 30
0.0
 10
3.233549705748558
 20
-0.3225
 30
0.0
 10
3.207242875620441
 20
-0.3225
 30
0.0
 10
3.180976494609492
 20
-0.3225000000000001
 30
0.0
 10
3.179490711330202
 20
-0.3225000000000001
 30
0.0
 10
3.178004928050911
 20
-0.3225000000000001
 30
0.0
  0
SPLINE
  5
B6
330
1F
100
AcDbEntity
  8
0
  6
Continuous
 62
     7
370
    25
100
AcDbSpline
210
0.0
220
0.0
230
1.0
 70
     8
 71
     3
 72
    11
 73
     7
 74
     0
 42
0.000000001
 43
0.00000001
 40
0.0
 40
0.0
 40
0.0
 40
0.0
 40
0.0002648610443298
 40
0.0002648610443298
 40
0.0002648610443298
 40
0.0005297221175959
 40
0.0005297221175959
 40
0.0005297221175959
 40
0.0005297221175959
 10
3.261676750265078
 20
-0.3224999999086025
 30
0.0
 10
3.260228843842345
 20
-0.3250121351350141
 30
0.0
 10
3.258780411729512
 20
-0.3275240789085955
 30
0.0
 10
3.257331457812002
 20
-0.3300358323947549
 30
0.0
 10
3.255882503736004
 20
-0.3325475861556531
 30
0.0
 10
3.254433027815773
 20
-0.3350591496976472
 30
0.0
 10
3.252983033861598
 20
-0.3375705241634984
 30
0.0
  0
SPLINE
  5
B8
330
1F
100
AcDbEntity
  8
0
  6
Continuous
 62
     7
370
    25
100
AcDbSpline
210
0.0
220
0.0
230
1.0
 70
     8
 71
     3
 72
    14
 73
    10
 74
     0
 42
0.000000001
 43
0.00000001
 40
0.0000000000000058
 40
0.0000000000000058
 40
0.0000000000000058
 40
0.0000000000000058
 40
0.0010456835496274
 40
0.0010456835496274
 40
0.0010456835496274
 40
0.0027198282354977
 40
0.0027198282354977
 40
0.0027198282354977
 40
0.0043939779092015
 40
0.0043939779092015
 40
0.0043939779092015
 40
0.0043939779092015
 10
3.08621578968218
 20
-0.3379489756194826
 30
0.0
 10
3.079604841319415
 20
-0.3379529120603
 30
0.0
 10
3.072985864466549
 20
-0.3379561792853416
 30
0.0
 10
3.066359494337581
 20
-0.3379595150822869
 30
0.0
 10
3.055750644556348
 20
-0.3379648557089053
 30
0.0
 10
3.045122932349922
 20
-0.3379698339386485
 30
0.0
 10
3.034478922791692
 20
-0.3379745315187979
 30
0.0
 10
3.023834880791901
 20
-0.3379792291132649
 30
0.0
 10
3.013174527640718
 20
-0.33798364044217
 30
0.0
 10
3.002500000511571
 20
-0.3379877284813847
 30
0.0
  0
SPLINE
  5
BA
330
1F
100
AcDbEntity
  8
0
  6
Continuous
 62
     7
370
    25
100
AcDbSpline
210
0.0
220
0.0
230
1.0
 70
     8
 71
     3
 72
    11
 73
     7
 74
     0
 42
0.000000001
 43
0.00000001
 40
0.0
 40
0.0
 40
0.0
 40
0.0
 40
0.000264861046482
 40
0.000264861046482
 40
0.000264861046482
 40
0.0005297221155825
 40
0.0005297221155825
 40
0.0005297221155825
 40
0.0005297221155825
 10
3.002016966138395
 20
-0.3375705241634995
 30
0.0
 10
3.000566972331044
 20
-0.3350591499519367
 30
0.0
 10
2.99911749655753
 20
-0.3325475866642709
 30
0.0
 10
2.99766854262814
 20
-0.3300358331577397
 30
0.0
 10
2.996219588541015
 20
-0.3275240793777758
 30
0.0
 10
2.994771156258686
 20
-0.3250121353103458
 30
0.0
 10
2.99332324966658
 20
-0.3224999997900416
 30
0.0
  0
SPLINE
  5
BB
330
1F
100
AcDbEntity
  8
0
  6
Continuous
 62
     7
370
    25
100
AcDbSpline
210
0.0
220
0.0
230
1.0
 70
    24
 71
     3
 72
    10
 73
     6
 74
     0
 42
0.000000001
 43
0.00000001
 40
-0.02493740695063
 40
-0.02493740695063
 40
-0.02493740695063
 40
-0.02493740695063
 40
0.0
 40
0.0
 40
0.4160006169442343
 40
0.4160006169442343
 40
0.4160006169442343
 40
0.4160006169442343
 10
3.07699507194909
 20
-0.3225000000000001
 30
0.0
 10
3.0755092886698
 20
-0.3225000000000001
 30
0.0
 10
3.07402350539051
 20
-0.3225000000000001
 30
0.0
 10
3.047757124369849
 20
-0.3225000000000001
 30
0.0
 10
3.021450294230885
 20
-0.3225000000000001
 30
0.0
 10
2.993323249435425
 20
-0.3225000000000001
 30
0.0
  0
SPLINE
  5
BC
330
1F
100
AcDbEntity
  8
0
  6
Continuous
 62
     7
370
    25
100
AcDbSpline
210
0.0
220
0.0
230
1.0
 70
     8
 71
     3
 72
    11
 73
     7
 74
     0
 42
0.000000001
 43
0.00000001
 40
0.0
 40
0.0
 40
0.0
 40
0.0
 40
0.000259160147397
 40
0.000259160147397
 40
0.000259160147397
 40
0.0005183203468557
 40
0.0005183203468557
 40
0.0005183203468557
 40
0.0005183203468557
 10
3.07699507194909
 20
-0.3224999999999993
 30
0.0
 10
3.078426825231837
 20
-0.3249858781040725
 30
0.0
 10
3.079859314008619
 20
-0.327471481230024
 30
0.0
 10
3.081292489844982
 20
-0.3299568270199278
 30
0.0
 10
3.082725665972557
 20
-0.3324421733148359
 30
0.0
 10
3.084159529246595
 20
-0.3349272623917489
 30
0.0
 10
3.085594031827825
 20
-0.3374121117535738
 30
0.0
  0
SPLINE
  5
BD
330
1F
100
AcDbEntity
  8
0
  6
Continuous
 62
     7
370
    25
100
AcDbSpline
210
0.0
220
0.0
230
1.0
 70
     8
 71
     3
 72
     8
 73
     4
 74
     0
 42
0.000000001
 43
0.00000001
 40
0.0
 40
0.0
 40
0.0
 40
0.0
 40
1.0
 40
1.0
 40
1.0
 40
1.0
 10
3.085594031827481
 20
-0.3374121117537031
 30
0.0
 10
3.085801284229154
 20
-0.3375910807332194
 30
0.0
 10
3.086008536630827
 20
-0.3377700350710868
 30
0.0
 10
3.0862157890325
 20
-0.3379489747440089
 30
0.0
  0
SPLINE
  5
BE
330
1F
100
AcDbEntity
  8
0
  6
Continuous
 62
     7
370
    25
100
AcDbSpline
210
0.0
220
0.0
230
1.0
 70
    24
 71
     3
 72
    10
 73
     6
 74
     0
 42
0.000000001
 43
0.00000001
 40
-0.024937406950338
 40
-0.024937406950338
 40
-0.024937406950338
 40
-0.024937406950338
 40
0.0
 40
0.0
 40
0.4160006169437762
 40
0.4160006169437762
 40
0.4160006169437762
 40
0.4160006169437762
 10
3.178004928050911
 20
0.3225000000000001
 30
0.0
 10
3.1794907113302
 20
0.3225000000000001
 30
0.0
 10
3.180976494609491
 20
0.3225000000000001
 30
0.0
 10
3.207242875630414
 20
0.3225000000000001
 30
0.0
 10
3.233549705769724
 20
0.3225000000000001
 30
0.0
 10
3.261676750564568
 20
0.3225000000000001
 30
0.0
  0
SPLINE
  5
BF
330
1F
100
AcDbEntity
  8
0
  6
Continuous
 62
     7
370
    25
100
AcDbSpline
210
0.0
220
0.0
230
1.0
 70
     8
 71
     3
 72
    11
 73
     7
 74
     0
 42
0.000000001
 43
0.00000001
 40
0.0
 40
0.0
 40
0.0
 40
0.0
 40
0.000259160147397
 40
0.000259160147397
 40
0.000259160147397
 40
0.0005183203468557
 40
0.0005183203468557
 40
0.0005183203468557
 40
0.0005183203468557
 10
3.178004928050911
 20
0.3224999999999993
 30
0.0
 10
3.176573174768165
 20
0.3249858781040721
 30
0.0
 10
3.175140685991382
 20
0.3274714812300238
 30
0.0
 10
3.173707510155019
 20
0.3299568270199278
 30
0.0
 10
3.172274334027445
 20
0.3324421733148364
 30
0.0
 10
3.170840470753405
 20
0.334927262391749
 30
0.0
 10
3.169405968172175
 20
0.3374121117535738
 30
0.0
  0
SPLINE
  5
C1
330
1F
100
AcDbEntity
  8
0
  6
Continuous
 62
     7
370
    25
100
AcDbSpline
210
0.0
220
0.0
230
1.0
 70
     8
 71
     3
 72
    14
 73
    10
 74
     0
 42
0.000000001
 43
0.00000001
 40
0.000000000000013
 40
0.000000000000013
 40
0.000000000000013
 40
0.000000000000013
 40
0.0010456835496278
 40
0.0010456835496278
 40
0.0010456835496278
 40
0.002719828235437
 40
0.002719828235437
 40
0.002719828235437
 40
0.0043939779090858
 40
0.0043939779090858
 40
0.0043939779090858
 40
0.0043939779090858
 10
3.168784210317821
 20
0.3379489756194821
 30
0.0
 10
3.175395158680588
 20
0.3379529120602995
 30
0.0
 10
3.182014135533457
 20
0.3379561792853421
 30
0.0
 10
3.188640505662427
 20
0.3379595150822871
 30
0.0
 10
3.199249355443273
 20
0.3379648557089047
 30
0.0
 10
3.20987706764931
 20
0.3379698339386463
 30
0.0
 10
3.220521077207151
 20
0.3379745315187944
 30
0.0
 10
3.231165119206553
 20
0.3379792291132601
 30
0.0
 10
3.241825472357347
 20
0.3379836404421622
 30
0.0
 10
3.252499999486103
 20
0.3379877284813743
 30
0.0
  0
SPLINE
  5
C3
330
1F
100
AcDbEntity
  8
0
  6
Continuous
 62
     7
370
    25
100
AcDbSpline
210
0.0
220
0.0
230
1.0
 70
     8
 71
     3
 72
    11
 73
     7
 74
     0
 42
0.000000001
 43
0.00000001
 40
0.0
 40
0.0
 40
0.0
 40
0.0
 40
0.000264861046482
 40
0.000264861046482
 40
0.000264861046482
 40
0.0005297221155824
 40
0.0005297221155824
 40
0.0005297221155824
 40
0.0005297221155824
 10
3.252983033861599
 20
0.3375705241634951
 30
0.0
 10
3.254433027668954
 20
0.3350591499519341
 30
0.0
 10
3.25588250344247
 20
0.3325475866642702
 30
0.0
 10
3.25733145737186
 20
0.330035833157739
 30
0.0
 10
3.258780411458984
 20
0.3275240793777754
 30
0.0
 10
3.26022884374131
 20
0.3250121353103455
 30
0.0
 10
3.261676750333413
 20
0.3224999997900405
 30
0.0
  0
SPLINE
  5
C9
330
1F
100
AcDbEntity
  8
0
  6
Continuous
 62
     7
370
    25
100
AcDbSpline
210
0.0
220
0.0
230
1.0
 70
    24
 71
     3
 72
    17
 73
    13
 74
     0
 42
0.000000001
 43
0.00000001
 40
0.478939551300587
 40
0.478939551300587
 40
0.478939551300587
 40
0.478939551300587
 40
0.496530928397088
 40
0.502394720762589
 40
0.51998609785909
 40
0.537577474955591
 40
0.537577474955591
 40
0.543623995281324
 40
0.549670515607058
 40
0.567810076584259
 40
0.567810076584259
 40
0.598623739557209
 40
0.598623739557209
 40
0.598623739557209
 40
0.598623739557209
 10
2.84625
 20
-0.3225000000000005
 30
0.0
 10
2.84513615811147
 20
-0.3225000000000005
 30
0.0
 10
2.84347631027037
 20
-0.3225000000000005
 30
0.0
 10
2.84078739402748
 20
-0.3225000000000005
 30
0.0
 10
2.83836592790518
 20
-0.3225000000000005
 30
0.0
 10
2.83626798866217
 20
-0.3225000000000005
 30
0.0
 10
2.83517137718622
 20
-0.3225000000000005
 30
0.0
 10
2.83460869330145
 20
-0.3224999999999995
 30
0.0
 10
2.83325308035027
 20
-0.3225000000000005
 30
0.0
 10
2.83238239217746
 20
-0.3225000000000005
 30
0.0
 10
2.831102981839031
 20
-0.3225000000000005
 30
0.0
 10
2.830625
 20
-0.3225000000000005
 30
0.0
 10
2.830625
 20
-0.3225000000000005
 30
0.0
  0
SPLINE
  5
CC
330
1F
100
AcDbEntity
  8
0
  6
Continuous
 62
     7
370
    25
100
AcDbSpline
210
0.0
220
0.0
230
1.0
 70
    24
 71
     3
 72
    17
 73
    13
 74
     0
 42
0.000000001
 43
0.00000001
 40
0.478939776876087
 40
0.478939776876087
 40
0.478939776876087
 40
0.478939776876087
 40
0.49653115397259
 40
0.502394946338091
 40
0.519986323434593
 40
0.537577700531096
 40
0.537577700531096
 40
0.54362422085683
 40
0.549670741182565
 40
0.567810302159767
 40
0.567810302159767
 40
0.598623965132715
 40
0.598623965132715
 40
0.598623965132715
 40
0.598623965132715
 10
3.408750000000001
 20
0.3225000000000001
 30
0.0
 10
3.40986384188852
 20
0.3225000000000001
 30
0.0
 10
3.41152369211919
 20
0.3225000000000001
 30
0.0
 10
3.41421260848746
 20
0.3225000000000001
 30
0.0
 10
3.416634075167921
 20
0.3225000000000001
 30
0.0
 10
3.41873201684737
 20
0.3225000000000001
 30
0.0
 10
3.41982862988472
 20
0.3225000000000001
 30
0.0
 10
3.42039131391233
 20
0.3225000000000001
 30
0.0
 10
3.421746927252369
 20
0.3225000000000001
 30
0.0
 10
3.422617614009361
 20
0.3225000000000001
 30
0.0
 10
3.423897021841031
 20
0.3225000000000001
 30
0.0
 10
3.424375
 20
0.3225000000000001
 30
0.0
 10
3.424375
 20
0.3225000000000001
 30
0.0
  0
SPLINE
  5
CF
330
1F
100
AcDbEntity
  8
0
  6
Continuous
 62
     7
370
    25
100
AcDbSpline
210
0.0
220
0.0
230
1.0
 70
    24
 71
     3
 72
    15
 73
    11
 74
     0
 42
0.000000001
 43
0.00000001
 40
0.359255588619473
 40
0.359255588619473
 40
0.359255588619473
 40
0.359255588619473
 40
0.390069251592421
 40
0.390069251592421
 40
0.407843356649156
 40
0.416730409177523
 40
0.434504514234258
 40
0.452278619290993
 40
0.461165671819361
 40
0.478939776876096
 40
0.478939776876096
 40
0.478939776876096
 40
0.478939776876096
 10
3.424375
 20
-0.3225000000000001
 30
0.0
 10
3.424375
 20
-0.3225000000000001
 30
0.0
 10
3.42389483261463
 20
-0.3225000000000001
 30
0.0
 10
3.422627237875279
 20
-0.3225000000000001
 30
0.0
 10
3.42163915789584
 20
-0.3225000000000001
 30
0.0
 10
3.419685120008571
 20
-0.3225000000000001
 30
0.0
 10
3.417344218955991
 20
-0.3225000000000001
 30
0.0
 10
3.414613436542989
 20
-0.3225000000000001
 30
0.0
 10
3.411788534272831
 20
-0.3225000000000001
 30
0.0
 10
3.40987541176479
 20
-0.3225000000000001
 30
0.0
 10
3.408750000000001
 20
-0.3225000000000001
 30
0.0
  0
SPLINE
  5
D2
330
1F
100
AcDbEntity
  8
0
  6
Continuous
 62
     7
370
    25
100
AcDbSpline
210
0.0
220
0.0
230
1.0
 70
    24
 71
     3
 72
    17
 73
    13
 74
     0
 42
0.000000001
 43
0.00000001
 40
0.359255363043966
 40
0.359255363043966
 40
0.359255363043966
 40
0.359255363043966
 40
0.376846740140467
 40
0.382710532505967
 40
0.400301909602468
 40
0.417893286698969
 40
0.417893286698969
 40
0.423939807024702
 40
0.429986327350436
 40
0.448125888327637
 40
0.448125888327637
 40
0.478939551300587
 40
0.478939551300587
 40
0.478939551300587
 40
0.478939551300587
 10
2.84625
 20
0.3225000000000029
 30
0.0
 10
2.84513615811147
 20
0.3225000000000029
 30
0.0
 10
2.84347631027037
 20
0.3225000000000029
 30
0.0
 10
2.840787394027479
 20
0.3225000000000029
 30
0.0
 10
2.838365927905169
 20
0.3225000000000029
 30
0.0
 10
2.836267988662159
 20
0.3225000000000019
 30
0.0
 10
2.835171377186219
 20
0.3225000000000019
 30
0.0
 10
2.834608693301447
 20
0.3225000000000019
 30
0.0
 10
2.833253080350278
 20
0.3225000000000019
 30
0.0
 10
2.832382392177457
 20
0.3225000000000029
 30
0.0
 10
2.83110298183904
 20
0.3225000000000029
 30
0.0
 10
2.830624999999999
 20
0.3225000000000029
 30
0.0
 10
2.830624999999999
 20
0.3225000000000029
 30
0.0
  0
CIRCLE
  5
E8
330
1F
100
AcDbEntity
  8
0
  6
Continuous
 62
     7
370
    25
100
AcDbCircle
 10
3.1275
 20
0.0
 30
0.0
 40
0.21875
  0
SPLINE
  5
EE
330
1F
100
AcDbEntity
  8
0
  6
Continuous
 62
     7
370
    25
100
AcDbSpline
210
0.0
220
0.0
230
1.0
 70
    24
 71
     3
 72
    14
 73
    10
 74
     0
 42
0.000000001
 43
0.00000001
 40
0.0
 40
0.0
 40
0.0
 40
0.0
 40
0.2500000000000001
 40
0.2500000000000001
 40
0.5000000000000001
 40
0.5000000000000001
 40
0.7500000000000002
 40
0.7500000000000002
 40
1.0
 40
1.0
 40
1.0
 40
1.0
 10
0.0
 20
0.4162054582456551
 30
0.0
 10
0.0
 20
0.4162054582456523
 30
0.0
 10
0.0
 20
0.3723531572402351
 30
0.0
 10
0.0
 20
0.2162502465432136
 30
0.0
 10
0.0
 20
0.1103814267148052
 30
0.0
 10
0.0
 20
-0.1103814267183641
 30
0.0
 10
0.0
 20
-0.2162502465463975
 30
0.0
 10
0.0
 20
-0.3723531572420842
 30
0.0
 10
0.0
 20
-0.4162054582465962
 30
0.0
 10
0.0
 20
-0.4162054582456551
 30
0.0
  0
SPLINE
  5
F0
330
1F
100
AcDbEntity
  8
0
  6
Continuous
 62
     7
370
    25
100
AcDbSpline
210
0.0
220
0.0
230
1.0
 70
     8
 71
     3
 72
     8
 73
     4
 74
     0
 42
0.000000001
 43
0.00000001
 40
0.0000000000000018
 40
0.0000000000000018
 40
0.0000000000000018
 40
0.0000000000000018
 40
0.0001841684780537
 40
0.0001841684780537
 40
0.0001841684780537
 40
0.0001841684780537
 10
6.185000057217694
 20
0.007485058215162
 30
0.0
 10
6.186667237032328
 20
0.0079831568969301
 30
0.0
 10
6.188333910146466
 20
0.0084808791034033
 30
0.0
 10
6.19000005722046
 20
0.008978210773525
 30
0.0
  0
SPLINE
  5
F6
330
1F
100
AcDbEntity
  8
0
  6
Continuous
 62
     7
370
    25
100
AcDbSpline
210
0.0
220
0.0
230
1.0
 70
     8
 71
     3
 72
     8
 73
     4
 74
     0
 42
0.000000001
 43
0.00000001
 40
0.0
 40
0.0
 40
0.0
 40
0.0
 40
0.000184168478052
 40
0.000184168478052
 40
0.000184168478052
 40
0.000184168478052
 10
6.19000005722046
 20
-0.0089782107735236
 30
0.0
 10
6.188333910146466
 20
-0.008480879103402
 30
0.0
 10
6.186667237030968
 20
-0.0079831568979539
 30
0.0
 10
6.185000057216335
 20
-0.0074850582161864
 30
0.0
  0
SPLINE
  5
107
330
1F
100
AcDbEntity
  8
0
  6
Continuous
 62
     7
370
    25
100
AcDbSpline
210
0.0
220
0.0
230
1.0
 70
     8
 71
     3
 72
     8
 73
     4
 74
     0
 42
0.000000001
 43
0.00000001
 40
0.0
 40
0.0
 40
0.0
 40
0.0
 40
0.000184168478052
 40
0.000184168478052
 40
0.000184168478052
 40
0.000184168478052
 10
6.19000005722046
 20
0.1771701683234128
 30
0.0
 10
6.188333910146466
 20
0.1784402248510333
 30
0.0
 10
6.186667237030968
 20
0.179710300805731
 30
0.0
 10
6.185000057216334
 20
0.180980394981606
 30
0.0
  0
SPLINE
  5
10A
330
1F
100
AcDbEntity
  8
0
  6
Continuous
 62
     7
370
    25
100
AcDbSpline
210
0.0
220
0.0
230
1.0
 70
     8
 71
     3
 72
     8
 73
     4
 74
     0
 42
0.000000001
 43
0.00000001
 40
0.0000000000000018
 40
0.0000000000000018
 40
0.0000000000000018
 40
0.0000000000000018
 40
0.0001841684780537
 40
0.0001841684780537
 40
0.0001841684780537
 40
0.0001841684780537
 10
6.185000057217694
 20
-0.1809803949830153
 30
0.0
 10
6.186667237032328
 20
-0.1797103008071405
 30
0.0
 10
6.188333910146466
 20
-0.1784402248510318
 30
0.0
 10
6.19000005722046
 20
-0.1771701683234115
 30
0.0
  0
SPLINE
  5
10B
330
1F
100
AcDbEntity
  8
0
  6
Continuous
 62
     7
370
    25
100
AcDbSpline
210
0.0
220
0.0
230
1.0
 70
     8
 71
     3
 72
     8
 73
     4
 74
     0
 42
0.000000001
 43
0.00000001
 40
0.0
 40
0.0
 40
0.0
 40
0.0
 40
0.000184168478052
 40
0.000184168478052
 40
0.000184168478052
 40
0.000184168478052
 10
6.19000005722046
 20
-0.1927208855442179
 30
0.0
 10
6.188333910146466
 20
-0.1931295383509744
 30
0.0
 10
6.186667237030968
 20
-0.193537534157781
 30
0.0
 10
6.185000057216335
 20
-0.1939448961096514
 30
0.0
  0
SPLINE
  5
10D
330
1F
100
AcDbEntity
  8
0
  6
Continuous
 62
     7
370
    25
100
AcDbSpline
210
0.0
220
0.0
230
1.0
 70
     8
 71
     3
 72
     8
 73
     4
 74
     0
 42
0.000000001
 43
0.00000001
 40
0.0000000000000018
 40
0.0000000000000018
 40
0.0000000000000018
 40
0.0000000000000018
 40
0.0001841684780538
 40
0.0001841684780538
 40
0.0001841684780538
 40
0.0001841684780538
 10
6.185000057217692
 20
0.1939448961092872
 30
0.0
 10
6.186667237032325
 20
0.1935375341574175
 30
0.0
 10
6.188333910146466
 20
0.1931295383509753
 30
0.0
 10
6.19000005722046
 20
0.1927208855442187
 30
0.0
  0
SPLINE
  5
10F
330
1F
100
AcDbEntity
  8
0
  6
Continuous
 62
     7
370
    25
100
AcDbSpline
210
0.0
220
0.0
230
1.0
 70
     8
 71
     3
 72
     8
 73
     4
 74
     0
 42
0.000000001
 43
0.00000001
 40
0.0
 40
0.0
 40
0.0
 40
0.0
 40
0.000184168478052
 40
0.000184168478052
 40
0.000184168478052
 40
0.000184168478052
 10
6.19000005722046
 20
0.3158459438952042
 30
0.0
 10
6.188333910146466
 20
0.3175484146594052
 30
0.0
 10
6.186667237030968
 20
0.3192505285369653
 30
0.0
 10
6.185000057216335
 20
0.3209522974982102
 30
0.0
  0
SPLINE
  5
111
330
1F
100
AcDbEntity
  8
0
  6
Continuous
 62
     7
370
    25
100
AcDbSpline
210
0.0
220
0.0
230
1.0
 70
     8
 71
     3
 72
     8
 73
     4
 74
     0
 42
0.000000001
 43
0.00000001
 40
0.0000000000000018
 40
0.0000000000000018
 40
0.0000000000000018
 40
0.0000000000000018
 40
0.0001841684780538
 40
0.0001841684780538
 40
0.0001841684780538
 40
0.0001841684780538
 10
6.185000057217692
 20
-0.3209522974996281
 30
0.0
 10
6.186667237032326
 20
-0.319250528538383
 30
0.0
 10
6.188333910146466
 20
-0.3175484146594048
 30
0.0
 10
6.19000005722046
 20
-0.315845943895203
 30
0.0
  0
SPLINE
  5
113
330
1F
100
AcDbEntity
  8
0
  6
Continuous
 62
     7
370
    25
100
AcDbSpline
210
0.0
220
0.0
230
1.0
 70
     8
 71
     3
 72
     8
 73
     4
 74
     0
 42
0.000000001
 43
0.00000001
 40
0.0
 40
0.0
 40
0.0
 40
0.0
 40
0.000184168478052
 40
0.000184168478052
 40
0.000184168478052
 40
0.000184168478052
 10
6.19000005722046
 20
-0.3248241546687276
 30
0.0
 10
6.188333910146466
 20
-0.3260292937628073
 30
0.0
 10
6.186667237030968
 20
-0.3272336854349193
 30
0.0
 10
6.185000057216334
 20
-0.3284373557143969
 30
0.0
  0
SPLINE
  5
115
330
1F
100
AcDbEntity
  8
0
  6
Continuous
 62
     7
370
    25
100
AcDbSpline
210
0.0
220
0.0
230
1.0
 70
     8
 71
     3
 72
     8
 73
     4
 74
     0
 42
0.000000001
 43
0.00000001
 40
0.0000000000000018
 40
0.0000000000000018
 40
0.0000000000000018
 40
0.0000000000000018
 40
0.0001841684780537
 40
0.0001841684780537
 40
0.0001841684780537
 40
0.0001841684780537
 10
6.185000057217694
 20
0.3284373557147899
 30
0.0
 10
6.186667237032328
 20
0.3272336854353133
 30
0.0
 10
6.188333910146466
 20
0.3260292937628077
 30
0.0
 10
6.19000005722046
 20
0.3248241546687281
 30
0.0
  0
SPLINE
  5
117
330
1F
100
AcDbEntity
  8
0
  6
Continuous
 62
     7
370
    25
100
AcDbSpline
210
0.0
220
0.0
230
1.0
 70
     8
 71
     3
 72
     8
 73
     4
 74
     0
 42
0.000000001
 43
0.00000001
 40
0.0000000000000018
 40
0.0000000000000018
 40
0.0000000000000018
 40
0.0000000000000018
 40
0.0001841684780538
 40
0.0001841684780538
 40
0.0001841684780538
 40
0.0001841684780538
 10
6.185000057217692
 20
-0.3749252910923022
 30
0.0
 10
6.186667237032325
 20
-0.3732478349645573
 30
0.0
 10
6.188333910146466
 20
-0.3715697632020072
 30
0.0
 10
6.19000005722046
 20
-0.36989105386763
 30
0.0
  0
SPLINE
  5
119
330
1F
100
AcDbEntity
  8
0
  6
Continuous
 62
     7
370
    25
100
AcDbSpline
210
0.0
220
0.0
230
1.0
 70
     8
 71
     3
 72
     8
 73
     4
 74
     0
 42
0.000000001
 43
0.00000001
 40
0.0
 40
0.0
 40
0.0
 40
0.0
 40
0.000184168478052
 40
0.000184168478052
 40
0.000184168478052
 40
0.000184168478052
 10
6.19000005722046
 20
0.3698910538676302
 30
0.0
 10
6.188333910146466
 20
0.3715697632020069
 30
0.0
 10
6.186667237030968
 20
0.3732478349635114
 30
0.0
 10
6.185000057216335
 20
0.3749252910912565
 30
0.0
  0
LINE
  5
122
330
1F
100
AcDbEntity
  8
0
  6
Continuous
 62
     7
370
    25
100
AcDbLine
 10
7.8800000572
 20
-0.375
 30
0.0
 11
7.9983058834
 21
-0.375
 31
0.0
  0
LINE
  5
123
330
1F
100
AcDbEntity
  8
0
  6
Continuous
 62
     7
370
    25
100
AcDbLine
 10
7.9983058834
 20
0.375
 30
0.0
 11
7.8800000572
 21
0.375
 31
0.0
  0
LINE
  5
124
330
1F
100
AcDbEntity
  8
0
  6
Continuous
 62
     7
370
    25
100
AcDbLine
 10
7.9983058834
 20
-0.3749999998
 30
0.0
 11
8.1300000572
 21
-0.2433058262
 31
0.0
  0
LINE
  5
125
330
1F
100
AcDbEntity
  8
0
  6
Continuous
 62
     7
370
    25
100
AcDbLine
 10
8.1300000572
 20
0.2433058262
 30
0.0
 11
7.9983058834
 21
0.3749999998
 31
0.0
  0
LINE
  5
126
330
1F
100
AcDbEntity
  8
0
  6
Continuous
 62
     7
370
    25
100
AcDbLine
 10
7.1900000572
 20
0.25
 30
0.0
 11
7.1800000572
 21
0.24
 31
0.0
  0
LINE
  5
127
330
1F
100
AcDbEntity
  8
0
  6
Continuous
 62
     7
370
    25
100
AcDbLine
 10
7.1800000572
 20
-0.24
 30
0.0
 11
7.1900000572
 21
-0.25
 31
0.0
  0
LINE
  5
128
330
1F
100
AcDbEntity
  8
0
  6
Continuous
 62
     7
370
    25
100
AcDbLine
 10
7.1900000572
 20
-0.25
 30
0.0
 11
7.8800000572
 21
-0.25
 31
0.0
  0
LINE
  5
129
330
1F
100
AcDbEntity
  8
0
  6
Continuous
 62
     7
370
    25
100
AcDbLine
 10
7.8800000572
 20
0.25
 30
0.0
 11
7.1900000572
 21
0.25
 31
0.0
  0
LINE
  5
12A
330
1F
100
AcDbEntity
  8
0
  6
Continuous
 62
     7
370
    25
100
AcDbLine
 10
3.40875
 20
1.25
 30
0.0
 11
3.2525
 21
1.25
 31
0.0
  0
LINE
  5
12B
330
1F
100
AcDbEntity
  8
0
  6
Continuous
 62
     7
370
    25
100
AcDbLine
 10
3.0025000003
 20
1.25
 30
0.0
 11
2.84625
 21
1.25
 31
0.0
  0
LINE
  5
12C
330
1F
100
AcDbEntity
  8
0
  6
Continuous
 62
     7
370
    25
100
AcDbLine
 10
2.84625
 20
-1.25
 30
0.0
 11
3.0025000003
 21
-1.25
 31
0.0
  0
LINE
  5
12D
330
1F
100
AcDbEntity
  8
0
  6
Continuous
 62
     7
370
    25
100
AcDbLine
 10
3.2524999995
 20
-1.25
 30
0.0
 11
3.40875
 21
-1.25
 31
0.0
  0
LINE
  5
12E
330
1F
100
AcDbEntity
  8
0
  6
Continuous
 62
     7
370
    25
100
AcDbLine
 10
3.168784211
 20
-1.1050000017
 30
0.0
 11
3.2524999994
 21
-1.2500000003
 31
0.0
  0
LINE
  5
12F
330
1F
100
AcDbEntity
  8
0
  6
Continuous
 62
     7
370
    25
100
AcDbLine
 10
3.0025
 20
-1.2500000013
 30
0.0
 11
3.0862157898
 21
-1.1050000004
 31
0.0
  0
LINE
  5
130
330
1F
100
AcDbEntity
  8
0
  6
Continuous
 62
     7
370
    25
100
AcDbLine
 10
3.2525
 20
1.2500000013
 30
0.0
 11
3.168784211
 21
1.1050000017
 31
0.0
  0
LINE
  5
131
330
1F
100
AcDbEntity
  8
0
  6
Continuous
 62
     7
370
    25
100
AcDbLine
 10
3.0862157898
 20
1.1050000004
 30
0.0
 11
3.0025
 21
1.2500000013
 31
0.0
  0
LINE
  5
132
330
1F
100
AcDbEntity
  8
0
  6
Continuous
 62
     7
370
    25
100
AcDbLine
 10
3.0862157894
 20
-1.105
 30
0.0
 11
3.168784211
 21
-1.105
 31
0.0
  0
LINE
  5
133
330
1F
100
AcDbEntity
  8
0
  6
Continuous
 62
     7
370
    25
100
AcDbLine
 10
3.168784211
 20
1.105
 30
0.0
 11
3.0862157894
 21
1.105
 31
0.0
  0
LINE
  5
134
330
1F
100
AcDbEntity
  8
0
  6
Continuous
 62
     7
370
    25
100
AcDbLine
 10
3.44
 20
-0.925
 30
0.0
 11
3.49
 21
-0.875
 31
0.0
  0
LINE
  5
135
330
1F
100
AcDbEntity
  8
0
  6
Continuous
 62
     7
370
    25
100
AcDbLine
 10
3.49
 20
0.875
 30
0.0
 11
3.44
 21
0.925
 31
0.0
  0
LINE
  5
136
330
1F
100
AcDbEntity
  8
0
  6
Continuous
 62
     7
370
    25
100
AcDbLine
 10
3.49
 20
-0.875
 30
0.0
 11
4.025
 21
-0.875
 31
0.0
  0
LINE
  5
137
330
1F
100
AcDbEntity
  8
0
  6
Continuous
 62
     7
370
    25
100
AcDbLine
 10
4.025
 20
0.875
 30
0.0
 11
3.49
 21
0.875
 31
0.0
  0
LINE
  5
138
330
1F
100
AcDbEntity
  8
0
  6
Continuous
 62
     7
370
    25
100
AcDbLine
 10
2.6900000001
 20
-0.875
 30
0.0
 11
2.78375
 21
-0.875
 31
0.0
  0
LINE
  5
139
330
1F
100
AcDbEntity
  8
0
  6
Continuous
 62
     7
370
    25
100
AcDbLine
 10
2.78375
 20
0.875
 30
0.0
 11
2.6900000001
 21
0.875
 31
0.0
  0
LINE
  5
13A
330
1F
100
AcDbEntity
  8
0
  6
Continuous
 62
     7
370
    25
100
AcDbLine
 10
2.6900000001
 20
0.8749999995
 30
0.0
 11
0.0531950185
 21
0.4780089154
 31
0.0
  0
LINE
  5
13B
330
1F
100
AcDbEntity
  8
0
  6
Continuous
 62
     7
370
    25
100
AcDbLine
 10
0.0531950185
 20
-0.4780089154
 30
0.0
 11
2.6900000001
 21
-0.8749999995
 31
0.0
  0
LINE
  5
13C
330
1F
100
AcDbEntity
  8
0
  6
Continuous
 62
     7
370
    25
100
AcDbLine
 10
4.055
 20
-0.435
 30
0.0
 11
4.1150000001
 21
-0.3750000001
 31
0.0
  0
LINE
  5
13D
330
1F
100
AcDbEntity
  8
0
  6
Continuous
 62
     7
370
    25
100
AcDbLine
 10
4.1150000001
 20
0.3750000001
 30
0.0
 11
4.055
 21
0.435
 31
0.0
  0
LINE
  5
13E
330
1F
100
AcDbEntity
  8
0
  6
Continuous
 62
     7
370
    25
100
AcDbLine
 10
4.1150000001
 20
-0.375
 30
0.0
 11
6.1700000572
 21
-0.375
 31
0.0
  0
LINE
  5
13F
330
1F
100
AcDbEntity
  8
0
  6
Continuous
 62
     7
370
    25
100
AcDbLine
 10
6.1700000572
 20
0.375
 30
0.0
 11
4.1150000001
 21
0.375
 31
0.0
  0
LINE
  5
140
330
1F
100
AcDbEntity
  8
0
  6
Continuous
 62
     7
370
    25
100
AcDbLine
 10
7.8800000572
 20
0.375
 30
0.0
 11
7.8800000572
 21
-0.375
 31
0.0
  0
LINE
  5
141
330
1F
100
AcDbEntity
  8
0
  6
Continuous
 62
     7
370
    25
100
AcDbLine
 10
7.9983058834
 20
-0.375
 30
0.0
 11
7.9983058834
 21
0.375
 31
0.0
  0
LINE
  5
142
330
1F
100
AcDbEntity
  8
0
  6
Continuous
 62
     7
370
    25
100
AcDbLine
 10
8.1300000572
 20
-0.2433058262
 30
0.0
 11
8.1300000572
 21
0.2433058262
 31
0.0
  0
LINE
  5
143
330
1F
100
AcDbEntity
  8
0
  6
Continuous
 62
     7
370
    25
100
AcDbLine
 10
7.1900000572
 20
0.25
 30
0.0
 11
7.1900000572
 21
-0.25
 31
0.0
  0
LINE
  5
144
330
1F
100
AcDbEntity
  8
0
  6
Continuous
 62
     7
370
    25
100
AcDbLine
 10
7.1800000572
 20
0.24
 30
0.0
 11
7.1800000572
 21
-0.24
 31
0.0
  0
LINE
  5
145
330
1F
100
AcDbEntity
  8
0
  6
Continuous
 62
     7
370
    25
100
AcDbLine
 10
3.0020169661
 20
0.3375705242
 30
0.0
 11
3.0025
 21
0.3379877278
 31
0.0
  0
LINE
  5
146
330
1F
100
AcDbEntity
  8
0
  6
Continuous
 62
     7
370
    25
100
AcDbLine
 10
3.086215789
 20
0.3379489747
 30
0.0
 11
3.0855940318
 21
0.3374121118
 31
0.0
  0
LINE
  5
147
330
1F
100
AcDbEntity
  8
0
  6
Continuous
 62
     7
370
    25
100
AcDbLine
 10
3.168784211
 20
-0.3379489747
 30
0.0
 11
3.1694059682
 21
-0.3374121118
 31
0.0
  0
LINE
  5
148
330
1F
100
AcDbEntity
  8
0
  6
Continuous
 62
     7
370
    25
100
AcDbLine
 10
3.2529830339
 20
-0.3375705242
 30
0.0
 11
3.2525
 21
-0.3379877278
 31
0.0
  0
LINE
  5
149
330
1F
100
AcDbEntity
  8
0
  6
Continuous
 62
     7
370
    25
100
AcDbLine
 10
3.0025
 20
-0.3379877278
 30
0.0
 11
3.0020169661
 21
-0.3375705242
 31
0.0
  0
LINE
  5
14A
330
1F
100
AcDbEntity
  8
0
  6
Continuous
 62
     7
370
    25
100
AcDbLine
 10
3.1694059682
 20
0.3374121118
 30
0.0
 11
3.168784211
 21
0.3379489747
 31
0.0
  0
LINE
  5
14B
330
1F
100
AcDbEntity
  8
0
  6
Continuous
 62
     7
370
    25
100
AcDbLine
 10
3.2525
 20
0.3379877278
 30
0.0
 11
3.2529830339
 21
0.3375705242
 31
0.0
  0
LINE
  5
14C
330
1F
100
AcDbEntity
  8
0
  6
Continuous
 62
     7
370
    25
100
AcDbLine
 10
3.2525
 20
1.25
 30
0.0
 11
3.2524999997
 21
0.3379877282
 31
0.0
  0
LINE
  5
14D
330
1F
100
AcDbEntity
  8
0
  6
Continuous
 62
     7
370
    25
100
AcDbLine
 10
3.40875
 20
0.3375705242
 30
0.0
 11
3.2529830339
 21
0.3375705242
 31
0.0
  0
LINE
  5
14E
330
1F
100
AcDbEntity
  8
0
  6
Continuous
 62
     7
370
    25
100
AcDbLine
 10
2.84625
 20
0.3375705242
 30
0.0
 11
3.0020169661
 21
0.3375705242
 31
0.0
  0
LINE
  5
14F
330
1F
100
AcDbEntity
  8
0
  6
Continuous
 62
     7
370
    25
100
AcDbLine
 10
3.0025000003
 20
0.3379877282
 30
0.0
 11
3.0025
 21
1.25
 31
0.0
  0
LINE
  5
150
330
1F
100
AcDbEntity
  8
0
  6
Continuous
 62
     7
370
    25
100
AcDbLine
 10
2.830625
 20
-0.3225
 30
0.0
 11
2.8152871612
 21
-0.338122361
 31
0.0
  0
LINE
  5
151
330
1F
100
AcDbEntity
  8
0
  6
Continuous
 62
     7
370
    25
100
AcDbLine
 10
2.84625
 20
-1.25
 30
0.0
 11
2.84625
 21
-0.3225
 31
0.0
  0
LINE
  5
152
330
1F
100
AcDbEntity
  8
0
  6
Continuous
 62
     7
370
    25
100
AcDbLine
 10
3.424375
 20
0.3225
 30
0.0
 11
3.4397128388
 21
0.338122361
 31
0.0
  0
LINE
  5
153
330
1F
100
AcDbEntity
  8
0
  6
Continuous
 62
     7
370
    25
100
AcDbLine
 10
3.40875
 20
1.25
 30
0.0
 11
3.40875
 21
0.3225
 31
0.0
  0
LINE
  5
154
330
1F
100
AcDbEntity
  8
0
  6
Continuous
 62
     7
370
    25
100
AcDbLine
 10
3.40875
 20
-0.3225
 30
0.0
 11
3.40875
 21
-1.25
 31
0.0
  0
LINE
  5
155
330
1F
100
AcDbEntity
  8
0
  6
Continuous
 62
     7
370
    25
100
AcDbLine
 10
3.424375
 20
-0.3225
 30
0.0
 11
3.4397128388
 21
-0.338122361
 31
0.0
  0
LINE
  5
156
330
1F
100
AcDbEntity
  8
0
  6
Continuous
 62
     7
370
    25
100
AcDbLine
 10
2.84625
 20
0.3225
 30
0.0
 11
2.84625
 21
1.25
 31
0.0
  0
LINE
  5
157
330
1F
100
AcDbEntity
  8
0
  6
Continuous
 62
     7
370
    25
100
AcDbLine
 10
2.830625
 20
0.3225
 30
0.0
 11
2.8152871612
 21
0.338122361
 31
0.0
  0
LINE
  5
158
330
1F
100
AcDbEntity
  8
0
  6
Continuous
 62
     7
370
    25
100
AcDbLine
 10
2.84625
 20
0.3225
 30
0.0
 11
2.993323249
 21
0.3224999999
 31
0.0
  0
LINE
  5
159
330
1F
100
AcDbEntity
  8
0
  6
Continuous
 62
     7
370
    25
100
AcDbLine
 10
3.2616767504
 20
0.3224999999
 30
0.0
 11
3.40875
 21
0.3225
 31
0.0
  0
LINE
  5
15A
330
1F
100
AcDbEntity
  8
0
  6
Continuous
 62
     7
370
    25
100
AcDbLine
 10
3.0025
 20
-1.25
 30
0.0
 11
3.0025000003
 21
-0.3379877282
 31
0.0
  0
LINE
  5
15B
330
1F
100
AcDbEntity
  8
0
  6
Continuous
 62
     7
370
    25
100
AcDbLine
 10
3.0020169661
 20
-0.3375705242
 30
0.0
 11
2.84625
 21
-0.3375705242
 31
0.0
  0
LINE
  5
15C
330
1F
100
AcDbEntity
  8
0
  6
Continuous
 62
     7
370
    25
100
AcDbLine
 10
2.9933232496
 20
-0.3224999999
 30
0.0
 11
2.84625
 21
-0.3225
 31
0.0
  0
LINE
  5
15D
330
1F
100
AcDbEntity
  8
0
  6
Continuous
 62
     7
370
    25
100
AcDbLine
 10
3.2529830339
 20
-0.3375705242
 30
0.0
 11
3.40875
 21
-0.3375705242
 31
0.0
  0
LINE
  5
15E
330
1F
100
AcDbEntity
  8
0
  6
Continuous
 62
     7
370
    25
100
AcDbLine
 10
3.2524999994
 20
-1.2500000003
 30
0.0
 11
3.2524999997
 21
-0.3379877279
 31
0.0
  0
LINE
  5
15F
330
1F
100
AcDbEntity
  8
0
  6
Continuous
 62
     7
370
    25
100
AcDbLine
 10
3.40875
 20
-0.3225
 30
0.0
 11
3.261676751
 21
-0.3225
 31
0.0
  0
LINE
  5
160
330
1F
100
AcDbEntity
  8
0
  6
Continuous
 62
     7
370
    25
100
AcDbLine
 10
3.168784211
 20
-1.105
 30
0.0
 11
3.1687842106
 21
-0.3379489752
 31
0.0
  0
LINE
  5
161
330
1F
100
AcDbEntity
  8
0
  6
Continuous
 62
     7
370
    25
100
AcDbLine
 10
3.0862157897
 20
-1.1050000002
 30
0.0
 11
3.0862157894
 21
-0.3379489748
 31
0.0
  0
LINE
  5
162
330
1F
100
AcDbEntity
  8
0
  6
Continuous
 62
     7
370
    25
100
AcDbLine
 10
3.168784211
 20
0.3379489747
 30
0.0
 11
3.168784211
 21
1.105
 31
0.0
  0
LINE
  5
163
330
1F
100
AcDbEntity
  8
0
  6
Continuous
 62
     7
370
    25
100
AcDbLine
 10
3.0862157894
 20
0.3379489748
 30
0.0
 11
3.0862157897
 21
1.1050000002
 31
0.0
  0
LINE
  5
164
330
1F
100
AcDbEntity
  8
0
  6
Continuous
 62
     7
370
    25
100
AcDbLine
 10
2.815
 20
-0.338125
 30
0.0
 11
2.830625
 21
-0.3225
 31
0.0
  0
LINE
  5
165
330
1F
100
AcDbEntity
  8
0
  6
Continuous
 62
     7
370
    25
100
AcDbLine
 10
2.830625
 20
0.3225
 30
0.0
 11
2.815
 21
0.338125
 31
0.0
  0
LINE
  5
166
330
1F
100
AcDbEntity
  8
0
  6
Continuous
 62
     7
370
    25
100
AcDbLine
 10
3.44
 20
0.338125
 30
0.0
 11
3.424375
 21
0.3225
 31
0.0
  0
LINE
  5
167
330
1F
100
AcDbEntity
  8
0
  6
Continuous
 62
     7
370
    25
100
AcDbLine
 10
3.424375
 20
-0.3225
 30
0.0
 11
3.44
 21
-0.338125
 31
0.0
  0
LINE
  5
168
330
1F
100
AcDbEntity
  8
0
  6
Continuous
 62
     7
370
    25
100
AcDbLine
 10
3.0855940318
 20
-0.3374121118
 30
0.0
 11
3.1694059682
 21
-0.3374121118
 31
0.0
  0
LINE
  5
169
330
1F
100
AcDbEntity
  8
0
  6
Continuous
 62
     7
370
    25
100
AcDbLine
 10
3.1694059682
 20
0.3374121118
 30
0.0
 11
3.0855940318
 21
0.3374121118
 31
0.0
  0
LINE
  5
16A
330
1F
100
AcDbEntity
  8
0
  6
Continuous
 62
     7
370
    25
100
AcDbLine
 10
3.1780049281
 20
-0.3225
 30
0.0
 11
3.0769950719
 21
-0.3225
 31
0.0
  0
LINE
  5
16B
330
1F
100
AcDbEntity
  8
0
  6
Continuous
 62
     7
370
    25
100
AcDbLine
 10
3.0769950719
 20
0.3225
 30
0.0
 11
3.1780049281
 21
0.3225
 31
0.0
  0
LINE
  5
16C
330
1F
100
AcDbEntity
  8
0
  6
Continuous
 62
     7
370
    25
100
AcDbLine
 10
3.44
 20
0.338125
 30
0.0
 11
3.44
 21
-0.338125
 31
0.0
  0
LINE
  5
16D
330
1F
100
AcDbEntity
  8
0
  6
Continuous
 62
     7
370
    25
100
AcDbLine
 10
2.815
 20
-0.338125
 30
0.0
 11
2.815
 21
0.338125
 31
0.0
  0
LINE
  5
16E
330
1F
100
AcDbEntity
  8
0
  6
Continuous
 62
     7
370
    25
100
AcDbLine
 10
3.49
 20
-0.875
 30
0.0
 11
3.49
 21
0.875
 31
0.0
  0
LINE
  5
16F
330
1F
100
AcDbEntity
  8
0
  6
Continuous
 62
     7
370
    25
100
AcDbLine
 10
4.055
 20
-0.845
 30
0.0
 11
4.055
 21
0.845
 31
0.0
  0
LINE
  5
170
330
1F
100
AcDbEntity
  8
0
  6
Continuous
 62
     7
370
    25
100
AcDbLine
 10
2.6900000001
 20
-0.8749999995
 30
0.0
 11
2.6900000001
 21
0.8749999995
 31
0.0
  0
LINE
  5
171
330
1F
100
AcDbEntity
  8
0
  6
Continuous
 62
     7
370
    25
100
AcDbLine
 10
4.1150000001
 20
-0.3750000001
 30
0.0
 11
4.1150000001
 21
0.3750000001
 31
0.0
  0
LINE
  5
172
330
1F
100
AcDbEntity
  8
0
  6
Continuous
 62
     7
370
    25
100
AcDbLine
 10
6.1900000572
 20
0.3698910539
 30
0.0
 11
6.1900000572
 21
-0.3698910539
 31
0.0
  0
LINE
  5
173
330
1F
100
AcDbEntity
  8
0
  6
Continuous
 62
     7
370
    25
100
AcDbLine
 10
6.1700000572
 20
0.0
 30
0.0
 11
6.1900000572
 21
0.0
 31
0.0
  0
LINE
  5
174
330
1F
100
AcDbEntity
  8
0
  6
Continuous
 62
     7
370
    25
100
AcDbLine
 10
6.1850000572
 20
0.0074850582
 30
0.0
 11
6.1700000572
 21
0.0
 31
0.0
  0
LINE
  5
175
330
1F
100
AcDbEntity
  8
0
  6
Continuous
 62
     7
370
    25
100
AcDbLine
 10
6.1850000572
 20
-0.0074850582
 30
0.0
 11
6.1700000572
 21
0.0
 31
0.0
  0
LINE
  5
176
330
1F
100
AcDbEntity
  8
0
  6
Continuous
 62
     7
370
    25
100
AcDbLine
 10
6.1850000572
 20
0.3749252911
 30
0.0
 11
6.1700000572
 21
0.375
 31
0.0
  0
LINE
  5
177
330
1F
100
AcDbEntity
  8
0
  6
Continuous
 62
     7
370
    25
100
AcDbLine
 10
6.1850000572
 20
0.3284373557
 30
0.0
 11
6.1850000572
 21
0.3749252911
 31
0.0
  0
LINE
  5
178
330
1F
100
AcDbEntity
  8
0
  6
Continuous
 62
     7
370
    25
100
AcDbLine
 10
6.1850000572
 20
0.3284373557
 30
0.0
 11
6.1700000572
 21
0.3247595264
 31
0.0
  0
LINE
  5
179
330
1F
100
AcDbEntity
  8
0
  6
Continuous
 62
     7
370
    25
100
AcDbLine
 10
6.1850000572
 20
0.3209522975
 30
0.0
 11
6.1700000572
 21
0.3247595264
 31
0.0
  0
LINE
  5
17A
330
1F
100
AcDbEntity
  8
0
  6
Continuous
 62
     7
370
    25
100
AcDbLine
 10
6.1850000572
 20
0.1939448961
 30
0.0
 11
6.1850000572
 21
0.3209522975
 31
0.0
  0
LINE
  5
17B
330
1F
100
AcDbEntity
  8
0
  6
Continuous
 62
     7
370
    25
100
AcDbLine
 10
6.1850000572
 20
0.1939448961
 30
0.0
 11
6.1700000572
 21
0.1875
 31
0.0
  0
LINE
  5
17C
330
1F
100
AcDbEntity
  8
0
  6
Continuous
 62
     7
370
    25
100
AcDbLine
 10
6.1850000572
 20
0.180980395
 30
0.0
 11
6.1700000572
 21
0.1875
 31
0.0
  0
LINE
  5
17D
330
1F
100
AcDbEntity
  8
0
  6
Continuous
 62
     7
370
    25
100
AcDbLine
 10
6.1850000572
 20
0.0074850582
 30
0.0
 11
6.1850000572
 21
0.180980395
 31
0.0
  0
LINE
  5
17E
330
1F
100
AcDbEntity
  8
0
  6
Continuous
 62
     7
370
    25
100
AcDbLine
 10
6.1850000572
 20
-0.180980395
 30
0.0
 11
6.1850000572
 21
-0.0074850582
 31
0.0
  0
LINE
  5
17F
330
1F
100
AcDbEntity
  8
0
  6
Continuous
 62
     7
370
    25
100
AcDbLine
 10
6.1850000572
 20
-0.180980395
 30
0.0
 11
6.1700000572
 21
-0.1875
 31
0.0
  0
LINE
  5
180
330
1F
100
AcDbEntity
  8
0
  6
Continuous
 62
     7
370
    25
100
AcDbLine
 10
6.1850000572
 20
-0.1939448961
 30
0.0
 11
6.1700000572
 21
-0.1875
 31
0.0
  0
LINE
  5
181
330
1F
100
AcDbEntity
  8
0
  6
Continuous
 62
     7
370
    25
100
AcDbLine
 10
6.1850000572
 20
-0.3209522975
 30
0.0
 11
6.1850000572
 21
-0.1939448961
 31
0.0
  0
LINE
  5
182
330
1F
100
AcDbEntity
  8
0
  6
Continuous
 62
     7
370
    25
100
AcDbLine
 10
6.1850000572
 20
-0.3209522975
 30
0.0
 11
6.1700000572
 21
-0.3247595264
 31
0.0
  0
LINE
  5
183
330
1F
100
AcDbEntity
  8
0
  6
Continuous
 62
     7
370
    25
100
AcDbLine
 10
6.1850000572
 20
-0.3284373557
 30
0.0
 11
6.1700000572
 21
-0.3247595264
 31
0.0
  0
LINE
  5
184
330
1F
100
AcDbEntity
  8
0
  6
Continuous
 62
     7
370
    25
100
AcDbLine
 10
6.1850000572
 20
-0.3749252911
 30
0.0
 11
6.1850000572
 21
-0.3284373557
 31
0.0
  0
LINE
  5
185
330
1F
100
AcDbEntity
  8
0
  6
Continuous
 62
     7
370
    25
100
AcDbLine
 10
6.1850000572
 20
-0.3749252911
 30
0.0
 11
6.1700000572
 21
-0.375
 31
0.0
  0
LINE
  5
186
330
1F
100
AcDbEntity
  8
0
  6
Continuous
 62
     8
370
    25
100
AcDbLine
 10
2.78375
 20
-0.875
 30
0.0
 11
2.78375
 21
0.875
 31
0.0
  0
LINE
  5
187
330
1F
100
AcDbEntity
  8
0
  6
Continuous
 62
     8
370
    25
100
AcDbLine
 10
4.025
 20
-0.875
 30
0.0
 11
4.025
 21
0.875
 31
0.0
  0
LINE
  5
188
330
1F
100
AcDbEntity
  8
0
  6
Continuous
 62
     8
370
    25
100
AcDbLine
 10
0.0531950185
 20
0.4780089154
 30
0.0
 11
0.0531950185
 21
-0.4780089154
 31
0.0
  0
ARC
  5
189
330
1F
100
AcDbEntity
  8
0
  6
Continuous
 62
     7
370
    25
100
AcDbCircle
 10
3.40875
 20
1.21875
 30
0.0
 40
0.0312500000000004
100
AcDbArc
 50
0.0
 51
90.0
  0
ARC
  5
18A
330
1F
100
AcDbEntity
  8
0
  6
Continuous
 62
     7
370
    25
100
AcDbCircle
 10
2.84625
 20
1.21875
 30
0.0
 40
0.0312499999999996
100
AcDbArc
 50
90.0
 51
180.0
  0
ARC
  5
18B
330
1F
100
AcDbEntity
  8
0
  6
Continuous
 62
     7
370
    25
100
AcDbCircle
 10
2.84625
 20
-1.21875
 30
0.0
 40
0.0312500000000004
100
AcDbArc
 50
180.0
 51
270.0
  0
ARC
  5
18C
330
1F
100
AcDbEntity
  8
0
  6
Continuous
 62
     7
370
    25
100
AcDbCircle
 10
3.40875
 20
-1.21875
 30
0.0
 40
0.0312499999999991
100
AcDbArc
 50
270.0
 51
0.0
  0
ARC
  5
18D
330
1F
100
AcDbEntity
  8
0
  6
Continuous
 62
     7
370
    25
100
AcDbCircle
 10
2.78375
 20
-0.90625
 30
0.0
 40
0.03125
100
AcDbArc
 50
0.0
 51
90.0
  0
ARC
  5
18E
330
1F
100
AcDbEntity
  8
0
  6
Continuous
 62
     7
370
    25
100
AcDbCircle
 10
2.78375
 20
0.90625
 30
0.0
 40
0.0312500000000006
100
AcDbArc
 50
270.0
 51
0.0
  0
ARC
  5
18F
330
1F
100
AcDbEntity
  8
0
  6
Continuous
 62
     7
370
    25
100
AcDbCircle
 10
4.025
 20
0.845
 30
0.0
 40
0.0300000000000002
100
AcDbArc
 50
0.0
 51
90.0
  0
ARC
  5
190
330
1F
100
AcDbEntity
  8
0
  6
Continuous
 62
     7
370
    25
100
AcDbCircle
 10
4.025
 20
-0.845
 30
0.0
 40
0.0300000000000011
100
AcDbArc
 50
270.0
 51
0.0
  0
ARC
  5
191
330
1F
100
AcDbEntity
  8
0
  6
Continuous
 62
     7
370
    25
100
AcDbCircle
 10
0.0625
 20
-0.4162054583
 30
0.0
 40
0.0624999999723582
100
AcDbArc
 50
179.9999999887
 51
261.4379906957
  0
ARC
  5
192
330
1F
100
AcDbEntity
  8
0
  6
Continuous
 62
     7
370
    25
100
AcDbCircle
 10
0.0625
 20
0.4162054582
 30
0.0
 40
0.0625000000162592
100
AcDbArc
 50
98.5620093389
 51
179.9999999766
  0
ENDSEC
  0
SECTION
  2
OBJECTS
  0
DICTIONARY
  5
C
330
0
100
AcDbDictionary
281
     1
  3
ACAD_GROUP
350
D
  3
ACAD_LAYOUT
350
1A
  3
ACAD_MLINESTYLE
350
17
  3
ACAD_PLOTSETTINGS
350
19
  3
ACAD_PLOTSTYLENAME
350
E
  3
ACAD_SCALELIST
350
47
  0
DICTIONARY
  5
D
102
{ACAD_REACTORS
330
C
102
}
330
C
100
AcDbDictionary
281
     1
  0
DICTIONARY
  5
1A
102
{ACAD_REACTORS
330
C
102
}
330
C
100
AcDbDictionary
281
     1
  3
Layout1
350
1E
  3
Layout2
350
26
  3
Model
350
22
  0
DICTIONARY
  5
17
102
{ACAD_REACTORS
330
C
102
}
330
C
100
AcDbDictionary
281
     1
  3
Standard
350
18
  0
DICTIONARY
  5
19
102
{ACAD_REACTORS
330
C
102
}
330
C
100
AcDbDictionary
281
     1
  0
ACDBDICTIONARYWDFLT
  5
E
102
{ACAD_REACTORS
330
C
102
}
330
C
100
AcDbDictionary
281
     1
  3
Normal
350
F
100
AcDbDictionaryWithDefault
340
F
  0
DICTIONARY
  5
47
102
{ACAD_REACTORS
330
C
102
}
330
C
100
AcDbDictionary
281
     1
  3
A0
350
48
  3
A1
350
49
  3
A2
350
4A
  3
A3
350
4B
  3
A4
350
4C
  3
A5
350
4D
  3
A6
350
4E
  3
A7
350
4F
  3
A8
350
50
  3
A9
350
51
  3
B0
350
52
  3
B1
350
53
  3
B2
350
54
  3
B3
350
55
  3
B4
350
56
  3
B5
350
57
  3
B6
350
58
  3
B7
350
59
  3
B8
350
5A
  3
B9
350
5B
  3
C0
350
5C
  3
C1
350
5D
  3
C2
350
5E
  3
C3
350
5F
  3
C4
350
60
  3
C5
350
61
  3
C6
350
62
  3
C7
350
63
  3
C8
350
64
  3
C9
350
65
  3
D0
350
66
  3
D1
350
67
  3
D2
350
68
  0
LAYOUT
  5
1E
102
{ACAD_REACTORS
330
1A
102
}
330
1A
100
AcDbPlotSettings
  1

  2
none_device
  4

  6

 40
0.0
 41
0.0
 42
0.0
 43
0.0
 44
0.0
 45
0.0
 46
0.0
 47
0.0
 48
0.0
 49
0.0
140
0.0
141
0.0
142
1.0
143
1.0
 70
   688
 72
     0
 73
     0
 74
     5
  7

 75
    16
147
1.0
148
0.0
149
0.0
100
AcDbLayout
  1
Layout1
 70
     1
 71
     1
 10
0.0
 20
0.0
 11
12.0
 21
9.0
 12
0.0
 22
0.0
 32
0.0
 14
1.0000000000E+20
 24
1.0000000000E+20
 34
1.0000000000E+20
 15
-1.0000000000E+20
 25
-1.0000000000E+20
 35
-1.0000000000E+20
146
0.0
 13
0.0
 23
0.0
 33
0.0
 16
1.0
 26
0.0
 36
0.0
 17
0.0
 27
1.0
 37
0.0
 76
     0
330
1B
  0
LAYOUT
  5
26
102
{ACAD_REACTORS
330
1A
102
}
330
1A
100
AcDbPlotSettings
  1

  2
none_device
  4

  6

 40
0.0
 41
0.0
 42
0.0
 43
0.0
 44
0.0
 45
0.0
 46
0.0
 47
0.0
 48
0.0
 49
0.0
140
0.0
141
0.0
142
1.0
143
1.0
 70
   688
 72
     0
 73
     0
 74
     5
  7

 75
    16
147
1.0
148
0.0
149
0.0
100
AcDbLayout
  1
Layout2
 70
     1
 71
     2
 10
0.0
 20
0.0
 11
0.0
 21
0.0
 12
0.0
 22
0.0
 32
0.0
 14
0.0
 24
0.0
 34
0.0
 15
0.0
 25
0.0
 35
0.0
146
0.0
 13
0.0
 23
0.0
 33
0.0
 16
1.0
 26
0.0
 36
0.0
 17
0.0
 27
1.0
 37
0.0
 76
     0
330
23
  0
LAYOUT
  5
22
102
{ACAD_REACTORS
330
1A
102
}
330
1A
100
AcDbPlotSettings
  1

  2
none_device
  4
ANSI_A_(11.00_x_8.50_Inches)
  6

 40
6.35
 41
19.05
 42
6.35000508
 43
19.05000254
 44
279.4
 45
215.9
 46
-4.95300254
 47
88.89999873
 48
0.0
 49
0.0
140
0.0
141
0.0
142
1.3394833854
143
1.0
 70
  1696
 72
     0
 73
     0
 74
     0
  7

 75
     0
147
0.5913241897
148
-39.4088153714
149
0.0
100
AcDbLayout
  1
Model
 70
     1
 71
     0
 10
0.0
 20
0.0
 11
12.0
 21
9.0
 12
0.0
 22
0.0
 32
0.0
 14
0.0
 24
-1.2500000013
 34
0.0
 15
8.1300000572
 25
1.2500000013
 35
0.0
146
0.0
 13
0.0
 23
0.0
 33
0.0
 16
1.0
 26
0.0
 36
0.0
 17
0.0
 27
1.0
 37
0.0
 76
     0
330
1F
331
29
  0
MLINESTYLE
  5
18
102
{ACAD_REACTORS
330
17
102
}
330
17
100
AcDbMlineStyle
  2
Standard
 70
     0
  3

 62
   256
 51
90.0
 52
90.0
 71
     2
 49
0.5
 62
   256
  6
BYLAYER
 49
-0.5
 62
   256
  6
BYLAYER
  0
ACDBPLACEHOLDER
  5
F
102
{ACAD_REACTORS
330
E
102
}
330
E
  0
SCALE
  5
48
102
{ACAD_REACTORS
330
47
102
}
330
47
100
AcDbScale
 70
     0
300
1:1
140
1.0
141
1.0
290
     1
  0
SCALE
  5
49
102
{ACAD_REACTORS
330
47
102
}
330
47
100
AcDbScale
 70
     0
300
1:2
140
1.0
141
2.0
290
     0
  0
SCALE
  5
4A
102
{ACAD_REACTORS
330
47
102
}
330
47
100
AcDbScale
 70
     0
300
1:4
140
1.0
141
4.0
290
     0
  0
SCALE
  5
4B
102
{ACAD_REACTORS
330
47
102
}
330
47
100
AcDbScale
 70
     0
300
1:5
140
1.0
141
5.0
290
     0
  0
SCALE
  5
4C
102
{ACAD_REACTORS
330
47
102
}
330
47
100
AcDbScale
 70
     0
300
1:8
140
1.0
141
8.0
290
     0
  0
SCALE
  5
4D
102
{ACAD_REACTORS
330
47
102
}
330
47
100
AcDbScale
 70
     0
300
1:10
140
1.0
141
10.0
290
     0
  0
SCALE
  5
4E
102
{ACAD_REACTORS
330
47
102
}
330
47
100
AcDbScale
 70
     0
300
1:16
140
1.0
141
16.0
290
     0
  0
SCALE
  5
4F
102
{ACAD_REACTORS
330
47
102
}
330
47
100
AcDbScale
 70
     0
300
1:20
140
1.0
141
20.0
290
     0
  0
SCALE
  5
50
102
{ACAD_REACTORS
330
47
102
}
330
47
100
AcDbScale
 70
     0
300
1:30
140
1.0
141
30.0
290
     0
  0
SCALE
  5
51
102
{ACAD_REACTORS
330
47
102
}
330
47
100
AcDbScale
 70
     0
300
1:40
140
1.0
141
40.0
290
     0
  0
SCALE
  5
52
102
{ACAD_REACTORS
330
47
102
}
330
47
100
AcDbScale
 70
     0
300
1:50
140
1.0
141
50.0
290
     0
  0
SCALE
  5
53
102
{ACAD_REACTORS
330
47
102
}
330
47
100
AcDbScale
 70
     0
300
1:100
140
1.0
141
100.0
290
     0
  0
SCALE
  5
54
102
{ACAD_REACTORS
330
47
102
}
330
47
100
AcDbScale
 70
     0
300
2:1
140
2.0
141
1.0
290
     0
  0
SCALE
  5
55
102
{ACAD_REACTORS
330
47
102
}
330
47
100
AcDbScale
 70
     0
300
4:1
140
4.0
141
1.0
290
     0
  0
SCALE
  5
56
102
{ACAD_REACTORS
330
47
102
}
330
47
100
AcDbScale
 70
     0
300
8:1
140
8.0
141
1.0
290
     0
  0
SCALE
  5
57
102
{ACAD_REACTORS
330
47
102
}
330
47
100
AcDbScale
 70
     0
300
10:1
140
10.0
141
1.0
290
     0
  0
SCALE
  5
58
102
{ACAD_REACTORS
330
47
102
}
330
47
100
AcDbScale
 70
     0
300
100:1
140
100.0
141
1.0
290
     0
  0
SCALE
  5
59
102
{ACAD_REACTORS
330
47
102
}
330
47
100
AcDbScale
 70
     0
300
1/128" = 1'-0"
140
0.0078125
141
12.0
290
     0
  0
SCALE
  5
5A
102
{ACAD_REACTORS
330
47
102
}
330
47
100
AcDbScale
 70
     0
300
1/64" = 1'-0"
140
0.015625
141
12.0
290
     0
  0
SCALE
  5
5B
102
{ACAD_REACTORS
330
47
102
}
330
47
100
AcDbScale
 70
     0
300
1/32" = 1'-0"
140
0.03125
141
12.0
290
     0
  0
SCALE
  5
5C
102
{ACAD_REACTORS
330
47
102
}
330
47
100
AcDbScale
 70
     0
300
1/16" = 1'-0"
140
0.0625
141
12.0
290
     0
  0
SCALE
  5
5D
102
{ACAD_REACTORS
330
47
102
}
330
47
100
AcDbScale
 70
     0
300
3/32" = 1'-0"
140
0.09375
141
12.0
290
     0
  0
SCALE
  5
5E
102
{ACAD_REACTORS
330
47
102
}
330
47
100
AcDbScale
 70
     0
300
1/8" = 1'-0"
140
0.125
141
12.0
290
     0
  0
SCALE
  5
5F
102
{ACAD_REACTORS
330
47
102
}
330
47
100
AcDbScale
 70
     0
300
3/16" = 1'-0"
140
0.1875
141
12.0
290
     0
  0
SCALE
  5
60
102
{ACAD_REACTORS
330
47
102
}
330
47
100
AcDbScale
 70
     0
300
1/4" = 1'-0"
140
0.25
141
12.0
290
     0
  0
SCALE
  5
61
102
{ACAD_REACTORS
330
47
102
}
330
47
100
AcDbScale
 70
     0
300
3/8" = 1'-0"
140
0.375
141
12.0
290
     0
  0
SCALE
  5
62
102
{ACAD_REACTORS
330
47
102
}
330
47
100
AcDbScale
 70
     0
300
1/2" = 1'-0"
140
0.5
141
12.0
290
     0
  0
SCALE
  5
63
102
{ACAD_REACTORS
330
47
102
}
330
47
100
AcDbScale
 70
     0
300
3/4" = 1'-0"
140
0.75
141
12.0
290
     0
  0
SCALE
  5
64
102
{ACAD_REACTORS
330
47
102
}
330
47
100
AcDbScale
 70
     0
300
1" = 1'-0"
140
1.0
141
12.0
290
     0
  0
SCALE
  5
65
102
{ACAD_REACTORS
330
47
102
}
330
47
100
AcDbScale
 70
     0
300
1-1/2" = 1'-0"
140
1.5
141
12.0
290
     0
  0
SCALE
  5
66
102
{ACAD_REACTORS
330
47
102
}
330
47
100
AcDbScale
 70
     0
300
3" = 1'-0"
140
3.0
141
12.0
290
     0
  0
SCALE
  5
67
102
{ACAD_REACTORS
330
47
102
}
330
47
100
AcDbScale
 70
     0
300
6" = 1'-0"
140
6.0
141
12.0
290
     0
  0
SCALE
  5
68
102
{ACAD_REACTORS
330
47
102
}
330
47
100
AcDbScale
 70
     0
300
1'-0" = 1'-0"
140
12.0
141
12.0
290
     0
  0
ENDSEC
  0
EOF
