ISO-10303-21;
HEADER;
/* Generated by software containing ST-Developer
 * from STEP Tools, Inc. (www.steptools.com) 
 */

FILE_DESCRIPTION(
/* description */ (''),
/* implementation_level */ '2;1');

FILE_NAME(
/* name */ 'SSA.3125-Cap.step',
/* time_stamp */ '2025-12-08T16:27:19-06:00',
/* author */ (''),
/* organization */ (''),
/* preprocessor_version */ 'ST-DEVELOPER v20.1',
/* originating_system */ 'Autodesk Translation Framework v14.21.0.0',
/* authorisation */ '');

FILE_SCHEMA (('AUTOMOTIVE_DESIGN { 1 0 10303 214 3 1 1 }'));
ENDSEC;

DATA;
#10=MECHANICAL_DESIGN_GEOMETRIC_PRESENTATION_REPRESENTATION('',(#13),#390);
#11=SHAPE_REPRESENTATION_RELATIONSHIP('SRR','None',#400,#12);
#12=ADVANCED_BREP_SHAPE_REPRESENTATION('',(#14),#389);
#13=STYLED_ITEM('',(#410),#14);
#14=MANIFOLD_SOLID_BREP('Body1',#213);
#15=CYLINDRICAL_SURFACE('',#234,0.15625);
#16=CYLINDRICAL_SURFACE('',#238,0.15125);
#17=CYLINDRICAL_SURFACE('',#248,0.3045);
#18=CYLINDRICAL_SURFACE('',#256,0.1015);
#19=FACE_BOUND('',#44,.T.);
#20=FACE_BOUND('',#50,.T.);
#21=FACE_BOUND('',#53,.T.);
#22=FACE_BOUND('',#58,.T.);
#23=PLANE('',#230);
#24=PLANE('',#240);
#25=PLANE('',#244);
#26=PLANE('',#252);
#27=FACE_OUTER_BOUND('',#42,.T.);
#28=FACE_OUTER_BOUND('',#43,.T.);
#29=FACE_OUTER_BOUND('',#45,.T.);
#30=FACE_OUTER_BOUND('',#46,.T.);
#31=FACE_OUTER_BOUND('',#47,.T.);
#32=FACE_OUTER_BOUND('',#48,.T.);
#33=FACE_OUTER_BOUND('',#49,.T.);
#34=FACE_OUTER_BOUND('',#51,.T.);
#35=FACE_OUTER_BOUND('',#52,.T.);
#36=FACE_OUTER_BOUND('',#54,.T.);
#37=FACE_OUTER_BOUND('',#55,.T.);
#38=FACE_OUTER_BOUND('',#56,.T.);
#39=FACE_OUTER_BOUND('',#57,.T.);
#40=FACE_OUTER_BOUND('',#59,.T.);
#41=FACE_OUTER_BOUND('',#60,.T.);
#42=EDGE_LOOP('',(#139,#140,#141,#142));
#43=EDGE_LOOP('',(#143));
#44=EDGE_LOOP('',(#144));
#45=EDGE_LOOP('',(#145,#146,#147,#148));
#46=EDGE_LOOP('',(#149,#150,#151,#152));
#47=EDGE_LOOP('',(#153,#154,#155,#156));
#48=EDGE_LOOP('',(#157,#158,#159,#160));
#49=EDGE_LOOP('',(#161));
#50=EDGE_LOOP('',(#162));
#51=EDGE_LOOP('',(#163,#164,#165,#166));
#52=EDGE_LOOP('',(#167));
#53=EDGE_LOOP('',(#168));
#54=EDGE_LOOP('',(#169,#170,#171,#172));
#55=EDGE_LOOP('',(#173,#174,#175,#176));
#56=EDGE_LOOP('',(#177,#178,#179,#180));
#57=EDGE_LOOP('',(#181));
#58=EDGE_LOOP('',(#182));
#59=EDGE_LOOP('',(#183,#184,#185,#186));
#60=EDGE_LOOP('',(#187,#188,#189,#190));
#61=LINE('',#335,#72);
#62=LINE('',#343,#73);
#63=LINE('',#347,#74);
#64=LINE('',#351,#75);
#65=LINE('',#355,#76);
#66=LINE('',#361,#77);
#67=LINE('',#369,#78);
#68=LINE('',#373,#79);
#69=LINE('',#377,#80);
#70=LINE('',#383,#81);
#71=LINE('',#386,#82);
#72=VECTOR('',#263,0.1065);
#73=VECTOR('',#274,0.15125);
#74=VECTOR('',#279,0.15625);
#75=VECTOR('',#284,0.15375);
#76=VECTOR('',#289,0.15125);
#77=VECTOR('',#296,0.168500001037156);
#78=VECTOR('',#307,0.2995);
#79=VECTOR('',#312,0.3045);
#80=VECTOR('',#317,0.2915);
#81=VECTOR('',#324,0.15075);
#82=VECTOR('',#329,0.1015);
#83=CIRCLE('',#228,0.1015);
#84=CIRCLE('',#229,0.1115);
#85=CIRCLE('',#231,0.14625);
#86=CIRCLE('',#233,0.15625);
#87=CIRCLE('',#235,0.15625);
#88=CIRCLE('',#237,0.15125);
#89=CIRCLE('',#239,0.15125);
#90=CIRCLE('',#241,0.166000001037156);
#91=CIRCLE('',#243,0.171000001037156);
#92=CIRCLE('',#245,0.2945);
#93=CIRCLE('',#247,0.3045);
#94=CIRCLE('',#249,0.3045);
#95=CIRCLE('',#251,0.2785);
#96=CIRCLE('',#253,0.2);
#97=CIRCLE('',#255,0.1015);
#98=VERTEX_POINT('',#332);
#99=VERTEX_POINT('',#334);
#100=VERTEX_POINT('',#338);
#101=VERTEX_POINT('',#341);
#102=VERTEX_POINT('',#345);
#103=VERTEX_POINT('',#349);
#104=VERTEX_POINT('',#353);
#105=VERTEX_POINT('',#357);
#106=VERTEX_POINT('',#360);
#107=VERTEX_POINT('',#364);
#108=VERTEX_POINT('',#367);
#109=VERTEX_POINT('',#371);
#110=VERTEX_POINT('',#375);
#111=VERTEX_POINT('',#379);
#112=VERTEX_POINT('',#382);
#113=EDGE_CURVE('',#98,#98,#83,.T.);
#114=EDGE_CURVE('',#98,#99,#61,.T.);
#115=EDGE_CURVE('',#99,#99,#84,.T.);
#116=EDGE_CURVE('',#100,#100,#85,.T.);
#117=EDGE_CURVE('',#101,#101,#86,.T.);
#118=EDGE_CURVE('',#101,#100,#62,.T.);
#119=EDGE_CURVE('',#102,#102,#87,.T.);
#120=EDGE_CURVE('',#102,#101,#63,.T.);
#121=EDGE_CURVE('',#103,#103,#88,.T.);
#122=EDGE_CURVE('',#103,#102,#64,.T.);
#123=EDGE_CURVE('',#104,#104,#89,.T.);
#124=EDGE_CURVE('',#104,#103,#65,.T.);
#125=EDGE_CURVE('',#105,#105,#90,.T.);
#126=EDGE_CURVE('',#105,#106,#66,.T.);
#127=EDGE_CURVE('',#106,#106,#91,.T.);
#128=EDGE_CURVE('',#107,#107,#92,.T.);
#129=EDGE_CURVE('',#108,#108,#93,.T.);
#130=EDGE_CURVE('',#108,#107,#67,.T.);
#131=EDGE_CURVE('',#109,#109,#94,.T.);
#132=EDGE_CURVE('',#109,#108,#68,.T.);
#133=EDGE_CURVE('',#110,#110,#95,.T.);
#134=EDGE_CURVE('',#110,#109,#69,.T.);
#135=EDGE_CURVE('',#111,#111,#96,.T.);
#136=EDGE_CURVE('',#111,#112,#70,.T.);
#137=EDGE_CURVE('',#112,#112,#97,.T.);
#138=EDGE_CURVE('',#112,#98,#71,.T.);
#139=ORIENTED_EDGE('',*,*,#113,.T.);
#140=ORIENTED_EDGE('',*,*,#114,.T.);
#141=ORIENTED_EDGE('',*,*,#115,.F.);
#142=ORIENTED_EDGE('',*,*,#114,.F.);
#143=ORIENTED_EDGE('',*,*,#116,.F.);
#144=ORIENTED_EDGE('',*,*,#115,.T.);
#145=ORIENTED_EDGE('',*,*,#117,.F.);
#146=ORIENTED_EDGE('',*,*,#118,.T.);
#147=ORIENTED_EDGE('',*,*,#116,.T.);
#148=ORIENTED_EDGE('',*,*,#118,.F.);
#149=ORIENTED_EDGE('',*,*,#119,.F.);
#150=ORIENTED_EDGE('',*,*,#120,.T.);
#151=ORIENTED_EDGE('',*,*,#117,.T.);
#152=ORIENTED_EDGE('',*,*,#120,.F.);
#153=ORIENTED_EDGE('',*,*,#121,.F.);
#154=ORIENTED_EDGE('',*,*,#122,.T.);
#155=ORIENTED_EDGE('',*,*,#119,.T.);
#156=ORIENTED_EDGE('',*,*,#122,.F.);
#157=ORIENTED_EDGE('',*,*,#123,.F.);
#158=ORIENTED_EDGE('',*,*,#124,.T.);
#159=ORIENTED_EDGE('',*,*,#121,.T.);
#160=ORIENTED_EDGE('',*,*,#124,.F.);
#161=ORIENTED_EDGE('',*,*,#125,.F.);
#162=ORIENTED_EDGE('',*,*,#123,.T.);
#163=ORIENTED_EDGE('',*,*,#125,.T.);
#164=ORIENTED_EDGE('',*,*,#126,.T.);
#165=ORIENTED_EDGE('',*,*,#127,.F.);
#166=ORIENTED_EDGE('',*,*,#126,.F.);
#167=ORIENTED_EDGE('',*,*,#128,.F.);
#168=ORIENTED_EDGE('',*,*,#127,.T.);
#169=ORIENTED_EDGE('',*,*,#129,.F.);
#170=ORIENTED_EDGE('',*,*,#130,.T.);
#171=ORIENTED_EDGE('',*,*,#128,.T.);
#172=ORIENTED_EDGE('',*,*,#130,.F.);
#173=ORIENTED_EDGE('',*,*,#131,.F.);
#174=ORIENTED_EDGE('',*,*,#132,.T.);
#175=ORIENTED_EDGE('',*,*,#129,.T.);
#176=ORIENTED_EDGE('',*,*,#132,.F.);
#177=ORIENTED_EDGE('',*,*,#133,.F.);
#178=ORIENTED_EDGE('',*,*,#134,.T.);
#179=ORIENTED_EDGE('',*,*,#131,.T.);
#180=ORIENTED_EDGE('',*,*,#134,.F.);
#181=ORIENTED_EDGE('',*,*,#133,.T.);
#182=ORIENTED_EDGE('',*,*,#135,.F.);
#183=ORIENTED_EDGE('',*,*,#135,.T.);
#184=ORIENTED_EDGE('',*,*,#136,.T.);
#185=ORIENTED_EDGE('',*,*,#137,.F.);
#186=ORIENTED_EDGE('',*,*,#136,.F.);
#187=ORIENTED_EDGE('',*,*,#137,.T.);
#188=ORIENTED_EDGE('',*,*,#138,.T.);
#189=ORIENTED_EDGE('',*,*,#113,.F.);
#190=ORIENTED_EDGE('',*,*,#138,.F.);
#191=CONICAL_SURFACE('',#227,0.1065,0.785398163397448);
#192=CONICAL_SURFACE('',#232,0.15125,0.785398163397448);
#193=CONICAL_SURFACE('',#236,0.15375,0.785398163397448);
#194=CONICAL_SURFACE('',#242,0.168500001037156,0.785398163397448);
#195=CONICAL_SURFACE('',#246,0.2995,0.785398163397448);
#196=CONICAL_SURFACE('',#250,0.2915,0.785398163397447);
#197=CONICAL_SURFACE('',#254,0.15075,0.715584993317676);
#198=ADVANCED_FACE('',(#27),#191,.F.);
#199=ADVANCED_FACE('',(#28,#19),#23,.T.);
#200=ADVANCED_FACE('',(#29),#192,.T.);
#201=ADVANCED_FACE('',(#30),#15,.T.);
#202=ADVANCED_FACE('',(#31),#193,.T.);
#203=ADVANCED_FACE('',(#32),#16,.T.);
#204=ADVANCED_FACE('',(#33,#20),#24,.T.);
#205=ADVANCED_FACE('',(#34),#194,.F.);
#206=ADVANCED_FACE('',(#35,#21),#25,.T.);
#207=ADVANCED_FACE('',(#36),#195,.T.);
#208=ADVANCED_FACE('',(#37),#17,.T.);
#209=ADVANCED_FACE('',(#38),#196,.T.);
#210=ADVANCED_FACE('',(#39,#22),#26,.T.);
#211=ADVANCED_FACE('',(#40),#197,.F.);
#212=ADVANCED_FACE('',(#41),#18,.F.);
#213=CLOSED_SHELL('',(#198,#199,#200,#201,#202,#203,#204,#205,#206,#207,
#208,#209,#210,#211,#212));
#214=DERIVED_UNIT_ELEMENT(#216,1.);
#215=DERIVED_UNIT_ELEMENT(#394,-3.);
#216=(
MASS_UNIT()
NAMED_UNIT(*)
SI_UNIT(.KILO.,.GRAM.)
);
#217=DERIVED_UNIT((#214,#215));
#218=MEASURE_REPRESENTATION_ITEM('density measure',
POSITIVE_RATIO_MEASURE(7850.),#217);
#219=PROPERTY_DEFINITION_REPRESENTATION(#224,#221);
#220=PROPERTY_DEFINITION_REPRESENTATION(#225,#222);
#221=REPRESENTATION('material name',(#223),#389);
#222=REPRESENTATION('density',(#218),#389);
#223=DESCRIPTIVE_REPRESENTATION_ITEM('Steel','Steel');
#224=PROPERTY_DEFINITION('material property','material name',#402);
#225=PROPERTY_DEFINITION('material property','density of part',#402);
#226=AXIS2_PLACEMENT_3D('',#330,#257,#258);
#227=AXIS2_PLACEMENT_3D('',#331,#259,#260);
#228=AXIS2_PLACEMENT_3D('',#333,#261,#262);
#229=AXIS2_PLACEMENT_3D('',#336,#264,#265);
#230=AXIS2_PLACEMENT_3D('',#337,#266,#267);
#231=AXIS2_PLACEMENT_3D('',#339,#268,#269);
#232=AXIS2_PLACEMENT_3D('',#340,#270,#271);
#233=AXIS2_PLACEMENT_3D('',#342,#272,#273);
#234=AXIS2_PLACEMENT_3D('',#344,#275,#276);
#235=AXIS2_PLACEMENT_3D('',#346,#277,#278);
#236=AXIS2_PLACEMENT_3D('',#348,#280,#281);
#237=AXIS2_PLACEMENT_3D('',#350,#282,#283);
#238=AXIS2_PLACEMENT_3D('',#352,#285,#286);
#239=AXIS2_PLACEMENT_3D('',#354,#287,#288);
#240=AXIS2_PLACEMENT_3D('',#356,#290,#291);
#241=AXIS2_PLACEMENT_3D('',#358,#292,#293);
#242=AXIS2_PLACEMENT_3D('',#359,#294,#295);
#243=AXIS2_PLACEMENT_3D('',#362,#297,#298);
#244=AXIS2_PLACEMENT_3D('',#363,#299,#300);
#245=AXIS2_PLACEMENT_3D('',#365,#301,#302);
#246=AXIS2_PLACEMENT_3D('',#366,#303,#304);
#247=AXIS2_PLACEMENT_3D('',#368,#305,#306);
#248=AXIS2_PLACEMENT_3D('',#370,#308,#309);
#249=AXIS2_PLACEMENT_3D('',#372,#310,#311);
#250=AXIS2_PLACEMENT_3D('',#374,#313,#314);
#251=AXIS2_PLACEMENT_3D('',#376,#315,#316);
#252=AXIS2_PLACEMENT_3D('',#378,#318,#319);
#253=AXIS2_PLACEMENT_3D('',#380,#320,#321);
#254=AXIS2_PLACEMENT_3D('',#381,#322,#323);
#255=AXIS2_PLACEMENT_3D('',#384,#325,#326);
#256=AXIS2_PLACEMENT_3D('',#385,#327,#328);
#257=DIRECTION('axis',(0.,0.,1.));
#258=DIRECTION('refdir',(1.,0.,0.));
#259=DIRECTION('center_axis',(-1.,0.,0.));
#260=DIRECTION('ref_axis',(0.,1.,0.));
#261=DIRECTION('center_axis',(1.,0.,0.));
#262=DIRECTION('ref_axis',(0.,0.,-1.));
#263=DIRECTION('',(-0.707106781186548,-0.707106781186547,-8.65956056235493E-17));
#264=DIRECTION('center_axis',(1.,0.,0.));
#265=DIRECTION('ref_axis',(0.,0.,-1.));
#266=DIRECTION('center_axis',(-1.,0.,0.));
#267=DIRECTION('ref_axis',(0.,0.,1.));
#268=DIRECTION('center_axis',(1.,0.,0.));
#269=DIRECTION('ref_axis',(0.,0.,-1.));
#270=DIRECTION('center_axis',(1.,0.,0.));
#271=DIRECTION('ref_axis',(0.,1.,0.));
#272=DIRECTION('center_axis',(1.,0.,0.));
#273=DIRECTION('ref_axis',(0.,0.,-1.));
#274=DIRECTION('',(-0.707106781186548,0.707106781186547,8.65956056235493E-17));
#275=DIRECTION('center_axis',(1.,0.,0.));
#276=DIRECTION('ref_axis',(0.,1.,0.));
#277=DIRECTION('center_axis',(1.,0.,0.));
#278=DIRECTION('ref_axis',(0.,0.,-1.));
#279=DIRECTION('',(-1.,0.,0.));
#280=DIRECTION('center_axis',(-1.,0.,0.));
#281=DIRECTION('ref_axis',(0.,1.,0.));
#282=DIRECTION('center_axis',(1.,0.,0.));
#283=DIRECTION('ref_axis',(0.,0.,-1.));
#284=DIRECTION('',(-0.707106781186548,-0.707106781186548,-8.65956056235494E-17));
#285=DIRECTION('center_axis',(1.,0.,0.));
#286=DIRECTION('ref_axis',(0.,1.,0.));
#287=DIRECTION('center_axis',(1.,0.,0.));
#288=DIRECTION('ref_axis',(0.,0.,-1.));
#289=DIRECTION('',(-1.,0.,0.));
#290=DIRECTION('center_axis',(-1.,0.,0.));
#291=DIRECTION('ref_axis',(0.,0.,1.));
#292=DIRECTION('center_axis',(1.,0.,0.));
#293=DIRECTION('ref_axis',(0.,0.,-1.));
#294=DIRECTION('center_axis',(-1.,0.,0.));
#295=DIRECTION('ref_axis',(0.,1.,0.));
#296=DIRECTION('',(-0.707106781186547,-0.707106781186547,-8.65956056235493E-17));
#297=DIRECTION('center_axis',(1.,0.,0.));
#298=DIRECTION('ref_axis',(0.,0.,-1.));
#299=DIRECTION('center_axis',(-1.,0.,0.));
#300=DIRECTION('ref_axis',(0.,0.,1.));
#301=DIRECTION('center_axis',(1.,0.,0.));
#302=DIRECTION('ref_axis',(0.,0.,-1.));
#303=DIRECTION('center_axis',(1.,0.,0.));
#304=DIRECTION('ref_axis',(0.,1.,0.));
#305=DIRECTION('center_axis',(1.,0.,0.));
#306=DIRECTION('ref_axis',(0.,0.,-1.));
#307=DIRECTION('',(-0.707106781186547,0.707106781186548,8.65956056235493E-17));
#308=DIRECTION('center_axis',(1.,0.,0.));
#309=DIRECTION('ref_axis',(0.,1.,0.));
#310=DIRECTION('center_axis',(1.,0.,0.));
#311=DIRECTION('ref_axis',(0.,0.,-1.));
#312=DIRECTION('',(-1.,0.,0.));
#313=DIRECTION('center_axis',(-1.,0.,0.));
#314=DIRECTION('ref_axis',(0.,1.,0.));
#315=DIRECTION('center_axis',(1.,0.,0.));
#316=DIRECTION('ref_axis',(0.,0.,-1.));
#317=DIRECTION('',(-0.707106781186548,-0.707106781186547,-8.65956056235492E-17));
#318=DIRECTION('center_axis',(1.,0.,0.));
#319=DIRECTION('ref_axis',(0.,0.,-1.));
#320=DIRECTION('center_axis',(1.,0.,0.));
#321=DIRECTION('ref_axis',(0.,0.,-1.));
#322=DIRECTION('center_axis',(1.,0.,0.));
#323=DIRECTION('ref_axis',(0.,1.,0.));
#324=DIRECTION('',(-0.754709580222771,0.656059028990508,8.03440589904947E-17));
#325=DIRECTION('center_axis',(1.,0.,0.));
#326=DIRECTION('ref_axis',(0.,0.,-1.));
#327=DIRECTION('center_axis',(1.,0.,0.));
#328=DIRECTION('ref_axis',(0.,1.,0.));
#329=DIRECTION('',(-1.,0.,0.));
#330=CARTESIAN_POINT('',(0.,0.,0.));
#331=CARTESIAN_POINT('Origin',(0.00499999999999999,0.,0.));
#332=CARTESIAN_POINT('',(0.00999999999999999,-0.1015,-1.24301650113456E-17));
#333=CARTESIAN_POINT('Origin',(0.00999999999999999,0.,0.));
#334=CARTESIAN_POINT('',(-3.41480999208033E-18,-0.1115,-1.3654811810493E-17));
#335=CARTESIAN_POINT('',(0.00499999999999999,-0.1065,-1.30424884109193E-17));
#336=CARTESIAN_POINT('Origin',(0.,0.,0.));
#337=CARTESIAN_POINT('Origin',(0.,0.14625,0.));
#338=CARTESIAN_POINT('',(-5.46369598732853E-18,-0.14625,-1.791045943753E-17));
#339=CARTESIAN_POINT('Origin',(0.,0.,0.));
#340=CARTESIAN_POINT('Origin',(0.00499999999999999,0.,0.));
#341=CARTESIAN_POINT('',(0.01,-0.15625,-1.91351062366774E-17));
#342=CARTESIAN_POINT('Origin',(0.00999999999999999,0.,0.));
#343=CARTESIAN_POINT('',(0.00499999999999999,-0.15125,-1.85227828371037E-17));
#344=CARTESIAN_POINT('Origin',(0.1575,0.,0.));
#345=CARTESIAN_POINT('',(0.305,-0.15625,-1.91351062366774E-17));
#346=CARTESIAN_POINT('Origin',(0.305,0.,0.));
#347=CARTESIAN_POINT('',(0.1575,-0.15625,-1.91351062366774E-17));
#348=CARTESIAN_POINT('Origin',(0.3075,0.,0.));
#349=CARTESIAN_POINT('',(0.31,-0.15125,-1.85227828371037E-17));
#350=CARTESIAN_POINT('Origin',(0.31,0.,0.));
#351=CARTESIAN_POINT('',(0.3075,-0.15375,-1.88289445368906E-17));
#352=CARTESIAN_POINT('Origin',(0.3175,0.,0.));
#353=CARTESIAN_POINT('',(0.325,-0.15125,-1.85227828371037E-17));
#354=CARTESIAN_POINT('Origin',(0.325,0.,0.));
#355=CARTESIAN_POINT('',(0.3175,-0.15125,-1.85227828371037E-17));
#356=CARTESIAN_POINT('Origin',(0.325,0.166000001037156,0.));
#357=CARTESIAN_POINT('',(0.325,-0.166000001037156,-2.0329136992861E-17));
#358=CARTESIAN_POINT('Origin',(0.325,0.,0.));
#359=CARTESIAN_POINT('Origin',(0.3225,0.,0.));
#360=CARTESIAN_POINT('',(0.32,-0.171000001037156,-2.09414603924347E-17));
#361=CARTESIAN_POINT('',(0.3225,-0.168500001037156,-2.06352986926479E-17));
#362=CARTESIAN_POINT('Origin',(0.32,0.,0.));
#363=CARTESIAN_POINT('Origin',(0.32,0.2945,0.));
#364=CARTESIAN_POINT('',(0.32,-0.2945,-3.60658482348895E-17));
#365=CARTESIAN_POINT('Origin',(0.32,0.,0.));
#366=CARTESIAN_POINT('Origin',(0.325,0.,0.));
#367=CARTESIAN_POINT('',(0.33,-0.3045,-3.72904950340369E-17));
#368=CARTESIAN_POINT('Origin',(0.33,0.,0.));
#369=CARTESIAN_POINT('',(0.325,-0.2995,-3.66781716344632E-17));
#370=CARTESIAN_POINT('Origin',(0.3815,0.,0.));
#371=CARTESIAN_POINT('',(0.433,-0.3045,-3.72904950340369E-17));
#372=CARTESIAN_POINT('Origin',(0.433,0.,0.));
#373=CARTESIAN_POINT('',(0.3815,-0.3045,-3.72904950340369E-17));
#374=CARTESIAN_POINT('Origin',(0.446,0.,0.));
#375=CARTESIAN_POINT('',(0.459,-0.2785,-3.41064133562538E-17));
#376=CARTESIAN_POINT('Origin',(0.459,0.,0.));
#377=CARTESIAN_POINT('',(0.446,-0.2915,-3.56984541951453E-17));
#378=CARTESIAN_POINT('Origin',(0.459,0.2,0.));
#379=CARTESIAN_POINT('',(0.459,-0.2,-2.44929359829471E-17));
#380=CARTESIAN_POINT('Origin',(0.459,0.,0.));
#381=CARTESIAN_POINT('Origin',(0.402344355944366,0.,0.));
#382=CARTESIAN_POINT('',(0.345688711888731,-0.1015,-1.24301650113456E-17));
#383=CARTESIAN_POINT('',(0.402344355944366,-0.15075,-1.84615504971464E-17));
#384=CARTESIAN_POINT('Origin',(0.345688711888731,0.,0.));
#385=CARTESIAN_POINT('Origin',(0.177844355944365,0.,0.));
#386=CARTESIAN_POINT('',(0.177844355944365,-0.1015,-1.24301650113456E-17));
#387=UNCERTAINTY_MEASURE_WITH_UNIT(LENGTH_MEASURE(0.000393700787401575),
#392,'DISTANCE_ACCURACY_VALUE',
'Maximum model space distance between geometric entities at asserted c
onnectivities');
#388=UNCERTAINTY_MEASURE_WITH_UNIT(LENGTH_MEASURE(0.000393700787401575),
#392,'DISTANCE_ACCURACY_VALUE',
'Maximum model space distance between geometric entities at asserted c
onnectivities');
#389=(
GEOMETRIC_REPRESENTATION_CONTEXT(3)
GLOBAL_UNCERTAINTY_ASSIGNED_CONTEXT((#387))
GLOBAL_UNIT_ASSIGNED_CONTEXT((#392,#396,#397))
REPRESENTATION_CONTEXT('','3D')
);
#390=(
GEOMETRIC_REPRESENTATION_CONTEXT(3)
GLOBAL_UNCERTAINTY_ASSIGNED_CONTEXT((#388))
GLOBAL_UNIT_ASSIGNED_CONTEXT((#392,#396,#397))
REPRESENTATION_CONTEXT('','3D')
);
#391=DIMENSIONAL_EXPONENTS(1.,0.,0.,0.,0.,0.,0.);
#392=(
CONVERSION_BASED_UNIT('inch',#395)
LENGTH_UNIT()
NAMED_UNIT(#391)
);
#393=(
LENGTH_UNIT()
NAMED_UNIT(*)
SI_UNIT(.MILLI.,.METRE.)
);
#394=(
LENGTH_UNIT()
NAMED_UNIT(*)
SI_UNIT($,.METRE.)
);
#395=LENGTH_MEASURE_WITH_UNIT(LENGTH_MEASURE(25.4),#393);
#396=(
NAMED_UNIT(*)
PLANE_ANGLE_UNIT()
SI_UNIT($,.RADIAN.)
);
#397=(
NAMED_UNIT(*)
SI_UNIT($,.STERADIAN.)
SOLID_ANGLE_UNIT()
);
#398=SHAPE_DEFINITION_REPRESENTATION(#399,#400);
#399=PRODUCT_DEFINITION_SHAPE('',$,#402);
#400=SHAPE_REPRESENTATION('',(#226),#389);
#401=PRODUCT_DEFINITION_CONTEXT('part definition',#406,'design');
#402=PRODUCT_DEFINITION('SSA.3125-Cap','SSA.3125-Cap v1',#403,#401);
#403=PRODUCT_DEFINITION_FORMATION('',$,#408);
#404=PRODUCT_RELATED_PRODUCT_CATEGORY('SSA.3125-Cap v1',
'SSA.3125-Cap v1',(#408));
#405=APPLICATION_PROTOCOL_DEFINITION('international standard',
'automotive_design',2009,#406);
#406=APPLICATION_CONTEXT(
'Core Data for Automotive Mechanical Design Process');
#407=PRODUCT_CONTEXT('part definition',#406,'mechanical');
#408=PRODUCT('SSA.3125-Cap','SSA.3125-Cap v1',$,(#407));
#409=PRESENTATION_STYLE_ASSIGNMENT((#411));
#410=PRESENTATION_STYLE_ASSIGNMENT((#412));
#411=SURFACE_STYLE_USAGE(.BOTH.,#413);
#412=SURFACE_STYLE_USAGE(.BOTH.,#414);
#413=SURFACE_SIDE_STYLE('',(#415));
#414=SURFACE_SIDE_STYLE('',(#416));
#415=SURFACE_STYLE_FILL_AREA(#417);
#416=SURFACE_STYLE_FILL_AREA(#418);
#417=FILL_AREA_STYLE('Steel - Satin',(#419));
#418=FILL_AREA_STYLE('Opaque(44,44,44)',(#420));
#419=FILL_AREA_STYLE_COLOUR('Steel - Satin',#421);
#420=FILL_AREA_STYLE_COLOUR('Opaque(44,44,44)',#422);
#421=COLOUR_RGB('Steel - Satin',0.627450980392157,0.627450980392157,0.627450980392157);
#422=COLOUR_RGB('Opaque(44,44,44)',0.172549019607843,0.172549019607843,
0.172549019607843);
ENDSEC;
END-ISO-10303-21;
