ISO-10303-21;
HEADER;
/* Generated by software containing ST-Developer
 * from STEP Tools, Inc. (www.steptools.com) 
 */

FILE_DESCRIPTION(
/* description */ (''),
/* implementation_level */ '2;1');

FILE_NAME(
/* name */ '1310-.060-1-BR.step',
/* time_stamp */ '2025-11-21T11:16:47-06:00',
/* author */ (''),
/* organization */ (''),
/* preprocessor_version */ 'ST-DEVELOPER v20.1',
/* originating_system */ 'Autodesk Translation Framework v14.21.0.0',
/* authorisation */ '');

FILE_SCHEMA (('AUTOMOTIVE_DESIGN { 1 0 10303 214 3 1 1 }'));
ENDSEC;

DATA;
#10=MECHANICAL_DESIGN_GEOMETRIC_PRESENTATION_REPRESENTATION('',(#13),#292);
#11=SHAPE_REPRESENTATION_RELATIONSHIP('SRR','None',#302,#12);
#12=ADVANCED_BREP_SHAPE_REPRESENTATION('',(#14),#291);
#13=STYLED_ITEM('',(#311),#14);
#14=MANIFOLD_SOLID_BREP('Body1',#154);
#15=TOROIDAL_SURFACE('',#178,0.0956692913385798,0.0787401574803121);
#16=CYLINDRICAL_SURFACE('',#173,0.0937007874015748);
#17=CYLINDRICAL_SURFACE('',#182,0.0169291338582677);
#18=CYLINDRICAL_SURFACE('',#186,0.03);
#19=PLANE('',#172);
#20=PLANE('',#190);
#21=FACE_OUTER_BOUND('',#31,.T.);
#22=FACE_OUTER_BOUND('',#32,.T.);
#23=FACE_OUTER_BOUND('',#33,.T.);
#24=FACE_OUTER_BOUND('',#34,.T.);
#25=FACE_OUTER_BOUND('',#35,.T.);
#26=FACE_OUTER_BOUND('',#36,.T.);
#27=FACE_OUTER_BOUND('',#37,.T.);
#28=FACE_OUTER_BOUND('',#38,.T.);
#29=FACE_OUTER_BOUND('',#39,.T.);
#30=FACE_OUTER_BOUND('',#40,.T.);
#31=EDGE_LOOP('',(#100,#101,#102,#103,#104));
#32=EDGE_LOOP('',(#105));
#33=EDGE_LOOP('',(#106,#107,#108,#109,#110));
#34=EDGE_LOOP('',(#111,#112,#113,#114,#115));
#35=EDGE_LOOP('',(#116,#117,#118,#119,#120,#121));
#36=EDGE_LOOP('',(#122,#123,#124,#125,#126));
#37=EDGE_LOOP('',(#127,#128,#129,#130));
#38=EDGE_LOOP('',(#131,#132,#133,#134));
#39=EDGE_LOOP('',(#135,#136,#137,#138));
#40=EDGE_LOOP('',(#139));
#41=LINE('',#253,#48);
#42=LINE('',#259,#49);
#43=LINE('',#264,#50);
#44=LINE('',#275,#51);
#45=LINE('',#279,#52);
#46=LINE('',#283,#53);
#47=LINE('',#287,#54);
#48=VECTOR('',#199,0.0838582677165354);
#49=VECTOR('',#208,0.0937007874015748);
#50=VECTOR('',#213,0.0576892668981926);
#51=VECTOR('',#228,0.0169291338582677);
#52=VECTOR('',#233,0.0234645669291339);
#53=VECTOR('',#238,0.03);
#54=VECTOR('',#243,0.0234645669291339);
#55=CIRCLE('',#169,0.0937007874015748);
#56=CIRCLE('',#170,0.0937007874015748);
#57=CIRCLE('',#171,0.0740157480314961);
#58=CIRCLE('',#174,0.0937007874015748);
#59=CIRCLE('',#176,0.0216777463948104);
#60=CIRCLE('',#177,0.0216777463948104);
#61=CIRCLE('',#179,0.0787401574803121);
#62=CIRCLE('',#180,0.0169291338582677);
#63=CIRCLE('',#181,0.0169291338582677);
#64=CIRCLE('',#183,0.0169291338582677);
#65=CIRCLE('',#185,0.03);
#66=CIRCLE('',#187,0.03);
#67=CIRCLE('',#189,0.0169291338582677);
#68=VERTEX_POINT('',#248);
#69=VERTEX_POINT('',#249);
#70=VERTEX_POINT('',#252);
#71=VERTEX_POINT('',#257);
#72=VERTEX_POINT('',#261);
#73=VERTEX_POINT('',#262);
#74=VERTEX_POINT('',#267);
#75=VERTEX_POINT('',#269);
#76=VERTEX_POINT('',#273);
#77=VERTEX_POINT('',#277);
#78=VERTEX_POINT('',#281);
#79=VERTEX_POINT('',#285);
#80=EDGE_CURVE('',#68,#69,#55,.T.);
#81=EDGE_CURVE('',#69,#68,#56,.T.);
#82=EDGE_CURVE('',#68,#70,#41,.T.);
#83=EDGE_CURVE('',#70,#70,#57,.T.);
#84=EDGE_CURVE('',#71,#71,#58,.T.);
#85=EDGE_CURVE('',#71,#69,#42,.T.);
#86=EDGE_CURVE('',#72,#73,#59,.T.);
#87=EDGE_CURVE('',#72,#71,#43,.T.);
#88=EDGE_CURVE('',#73,#72,#60,.T.);
#89=EDGE_CURVE('',#73,#74,#61,.T.);
#90=EDGE_CURVE('',#75,#74,#62,.T.);
#91=EDGE_CURVE('',#74,#75,#63,.T.);
#92=EDGE_CURVE('',#76,#76,#64,.T.);
#93=EDGE_CURVE('',#76,#75,#44,.T.);
#94=EDGE_CURVE('',#77,#77,#65,.T.);
#95=EDGE_CURVE('',#77,#76,#45,.T.);
#96=EDGE_CURVE('',#78,#78,#66,.T.);
#97=EDGE_CURVE('',#78,#77,#46,.T.);
#98=EDGE_CURVE('',#79,#79,#67,.T.);
#99=EDGE_CURVE('',#79,#78,#47,.T.);
#100=ORIENTED_EDGE('',*,*,#80,.T.);
#101=ORIENTED_EDGE('',*,*,#81,.T.);
#102=ORIENTED_EDGE('',*,*,#82,.T.);
#103=ORIENTED_EDGE('',*,*,#83,.T.);
#104=ORIENTED_EDGE('',*,*,#82,.F.);
#105=ORIENTED_EDGE('',*,*,#83,.F.);
#106=ORIENTED_EDGE('',*,*,#84,.F.);
#107=ORIENTED_EDGE('',*,*,#85,.T.);
#108=ORIENTED_EDGE('',*,*,#80,.F.);
#109=ORIENTED_EDGE('',*,*,#81,.F.);
#110=ORIENTED_EDGE('',*,*,#85,.F.);
#111=ORIENTED_EDGE('',*,*,#86,.F.);
#112=ORIENTED_EDGE('',*,*,#87,.T.);
#113=ORIENTED_EDGE('',*,*,#84,.T.);
#114=ORIENTED_EDGE('',*,*,#87,.F.);
#115=ORIENTED_EDGE('',*,*,#88,.F.);
#116=ORIENTED_EDGE('',*,*,#86,.T.);
#117=ORIENTED_EDGE('',*,*,#89,.T.);
#118=ORIENTED_EDGE('',*,*,#90,.F.);
#119=ORIENTED_EDGE('',*,*,#91,.F.);
#120=ORIENTED_EDGE('',*,*,#89,.F.);
#121=ORIENTED_EDGE('',*,*,#88,.T.);
#122=ORIENTED_EDGE('',*,*,#92,.F.);
#123=ORIENTED_EDGE('',*,*,#93,.T.);
#124=ORIENTED_EDGE('',*,*,#90,.T.);
#125=ORIENTED_EDGE('',*,*,#91,.T.);
#126=ORIENTED_EDGE('',*,*,#93,.F.);
#127=ORIENTED_EDGE('',*,*,#94,.F.);
#128=ORIENTED_EDGE('',*,*,#95,.T.);
#129=ORIENTED_EDGE('',*,*,#92,.T.);
#130=ORIENTED_EDGE('',*,*,#95,.F.);
#131=ORIENTED_EDGE('',*,*,#96,.F.);
#132=ORIENTED_EDGE('',*,*,#97,.T.);
#133=ORIENTED_EDGE('',*,*,#94,.T.);
#134=ORIENTED_EDGE('',*,*,#97,.F.);
#135=ORIENTED_EDGE('',*,*,#98,.F.);
#136=ORIENTED_EDGE('',*,*,#99,.T.);
#137=ORIENTED_EDGE('',*,*,#96,.T.);
#138=ORIENTED_EDGE('',*,*,#99,.F.);
#139=ORIENTED_EDGE('',*,*,#98,.T.);
#140=CONICAL_SURFACE('',#168,0.0838582677165354,0.78539816339745);
#141=CONICAL_SURFACE('',#175,0.0576892668981926,0.349065850398873);
#142=CONICAL_SURFACE('',#184,0.0234645669291339,1.04719755119661);
#143=CONICAL_SURFACE('',#188,0.0234645669291339,1.04719755119665);
#144=ADVANCED_FACE('',(#21),#140,.T.);
#145=ADVANCED_FACE('',(#22),#19,.T.);
#146=ADVANCED_FACE('',(#23),#16,.T.);
#147=ADVANCED_FACE('',(#24),#141,.T.);
#148=ADVANCED_FACE('',(#25),#15,.F.);
#149=ADVANCED_FACE('',(#26),#17,.T.);
#150=ADVANCED_FACE('',(#27),#142,.T.);
#151=ADVANCED_FACE('',(#28),#18,.T.);
#152=ADVANCED_FACE('',(#29),#143,.T.);
#153=ADVANCED_FACE('',(#30),#20,.T.);
#154=CLOSED_SHELL('',(#144,#145,#146,#147,#148,#149,#150,#151,#152,#153));
#155=DERIVED_UNIT_ELEMENT(#157,1.);
#156=DERIVED_UNIT_ELEMENT(#296,-3.);
#157=(
MASS_UNIT()
NAMED_UNIT(*)
SI_UNIT(.KILO.,.GRAM.)
);
#158=DERIVED_UNIT((#155,#156));
#159=MEASURE_REPRESENTATION_ITEM('density measure',
POSITIVE_RATIO_MEASURE(7850.),#158);
#160=PROPERTY_DEFINITION_REPRESENTATION(#165,#162);
#161=PROPERTY_DEFINITION_REPRESENTATION(#166,#163);
#162=REPRESENTATION('material name',(#164),#291);
#163=REPRESENTATION('density',(#159),#291);
#164=DESCRIPTIVE_REPRESENTATION_ITEM('Steel','Steel');
#165=PROPERTY_DEFINITION('material property','material name',#304);
#166=PROPERTY_DEFINITION('material property','density of part',#304);
#167=AXIS2_PLACEMENT_3D('',#246,#191,#192);
#168=AXIS2_PLACEMENT_3D('',#247,#193,#194);
#169=AXIS2_PLACEMENT_3D('',#250,#195,#196);
#170=AXIS2_PLACEMENT_3D('',#251,#197,#198);
#171=AXIS2_PLACEMENT_3D('',#254,#200,#201);
#172=AXIS2_PLACEMENT_3D('',#255,#202,#203);
#173=AXIS2_PLACEMENT_3D('',#256,#204,#205);
#174=AXIS2_PLACEMENT_3D('',#258,#206,#207);
#175=AXIS2_PLACEMENT_3D('',#260,#209,#210);
#176=AXIS2_PLACEMENT_3D('',#263,#211,#212);
#177=AXIS2_PLACEMENT_3D('',#265,#214,#215);
#178=AXIS2_PLACEMENT_3D('',#266,#216,#217);
#179=AXIS2_PLACEMENT_3D('',#268,#218,#219);
#180=AXIS2_PLACEMENT_3D('',#270,#220,#221);
#181=AXIS2_PLACEMENT_3D('',#271,#222,#223);
#182=AXIS2_PLACEMENT_3D('',#272,#224,#225);
#183=AXIS2_PLACEMENT_3D('',#274,#226,#227);
#184=AXIS2_PLACEMENT_3D('',#276,#229,#230);
#185=AXIS2_PLACEMENT_3D('',#278,#231,#232);
#186=AXIS2_PLACEMENT_3D('',#280,#234,#235);
#187=AXIS2_PLACEMENT_3D('',#282,#236,#237);
#188=AXIS2_PLACEMENT_3D('',#284,#239,#240);
#189=AXIS2_PLACEMENT_3D('',#286,#241,#242);
#190=AXIS2_PLACEMENT_3D('',#288,#244,#245);
#191=DIRECTION('axis',(0.,0.,1.));
#192=DIRECTION('refdir',(1.,0.,0.));
#193=DIRECTION('center_axis',(1.,0.,0.));
#194=DIRECTION('ref_axis',(0.,-1.,0.));
#195=DIRECTION('center_axis',(-1.,0.,0.));
#196=DIRECTION('ref_axis',(0.,-1.,0.));
#197=DIRECTION('center_axis',(-1.,0.,0.));
#198=DIRECTION('ref_axis',(0.,-1.,0.));
#199=DIRECTION('',(-0.707106781186546,-0.707106781186549,-8.65956056235495E-17));
#200=DIRECTION('center_axis',(1.,0.,0.));
#201=DIRECTION('ref_axis',(0.,-1.,0.));
#202=DIRECTION('center_axis',(-1.,0.,0.));
#203=DIRECTION('ref_axis',(0.,0.,1.));
#204=DIRECTION('center_axis',(1.,0.,0.));
#205=DIRECTION('ref_axis',(0.,1.,0.));
#206=DIRECTION('center_axis',(1.,0.,0.));
#207=DIRECTION('ref_axis',(0.,0.,-1.));
#208=DIRECTION('',(-1.,0.,0.));
#209=DIRECTION('center_axis',(-1.,0.,0.));
#210=DIRECTION('ref_axis',(0.,1.,0.));
#211=DIRECTION('center_axis',(1.,0.,0.));
#212=DIRECTION('ref_axis',(0.,0.,-1.));
#213=DIRECTION('',(-0.939692620785906,-0.342020143325675,-4.18853873767707E-17));
#214=DIRECTION('center_axis',(1.,0.,0.));
#215=DIRECTION('ref_axis',(0.,0.,-1.));
#216=DIRECTION('center_axis',(1.,0.,0.));
#217=DIRECTION('ref_axis',(0.,0.,-1.));
#218=DIRECTION('center_axis',(0.,-1.,-1.22464679914735E-16));
#219=DIRECTION('ref_axis',(0.,-1.22464679914735E-16,1.));
#220=DIRECTION('center_axis',(1.,0.,0.));
#221=DIRECTION('ref_axis',(0.,0.,-1.));
#222=DIRECTION('center_axis',(1.,0.,0.));
#223=DIRECTION('ref_axis',(0.,0.,-1.));
#224=DIRECTION('center_axis',(1.,0.,0.));
#225=DIRECTION('ref_axis',(0.,1.,0.));
#226=DIRECTION('center_axis',(1.,0.,0.));
#227=DIRECTION('ref_axis',(0.,0.,-1.));
#228=DIRECTION('',(-1.,0.,0.));
#229=DIRECTION('center_axis',(1.,0.,0.));
#230=DIRECTION('ref_axis',(0.,1.,0.));
#231=DIRECTION('center_axis',(1.,0.,0.));
#232=DIRECTION('ref_axis',(0.,0.,-1.));
#233=DIRECTION('',(-0.499999999999989,0.866025403784445,1.06057523872491E-16));
#234=DIRECTION('center_axis',(1.,0.,0.));
#235=DIRECTION('ref_axis',(0.,1.,0.));
#236=DIRECTION('center_axis',(1.,0.,0.));
#237=DIRECTION('ref_axis',(0.,0.,-1.));
#238=DIRECTION('',(-1.,0.,0.));
#239=DIRECTION('center_axis',(-1.,0.,0.));
#240=DIRECTION('ref_axis',(0.,1.,0.));
#241=DIRECTION('center_axis',(1.,0.,0.));
#242=DIRECTION('ref_axis',(0.,0.,-1.));
#243=DIRECTION('',(-0.499999999999954,-0.866025403784465,-1.06057523872494E-16));
#244=DIRECTION('center_axis',(1.,0.,0.));
#245=DIRECTION('ref_axis',(0.,0.,-1.));
#246=CARTESIAN_POINT('',(0.,0.,0.));
#247=CARTESIAN_POINT('Origin',(0.00984251968503933,0.,0.));
#248=CARTESIAN_POINT('',(0.0196850393700787,0.0937007874015748,-1.14750369368925E-17));
#249=CARTESIAN_POINT('',(0.0196850393700787,-0.0937007874015748,-1.14750369368925E-17));
#250=CARTESIAN_POINT('Origin',(0.0196850393700787,0.,0.));
#251=CARTESIAN_POINT('Origin',(0.0196850393700787,0.,0.));
#252=CARTESIAN_POINT('',(0.,0.0740157480314961,9.06431489132687E-18));
#253=CARTESIAN_POINT('',(0.00984251968503933,0.0838582677165354,1.02696759141097E-17));
#254=CARTESIAN_POINT('Origin',(0.,0.,0.));
#255=CARTESIAN_POINT('Origin',(0.,0.0937007874015748,0.));
#256=CARTESIAN_POINT('Origin',(1.05398462661542,0.,0.));
#257=CARTESIAN_POINT('',(2.10796925323085,-0.0937007874015748,-1.14750369368925E-17));
#258=CARTESIAN_POINT('Origin',(2.10796925323085,0.,0.));
#259=CARTESIAN_POINT('',(1.05398462661542,-0.0937007874015748,-1.14750369368925E-17));
#260=CARTESIAN_POINT('Origin',(2.20691009265412,0.,0.));
#261=CARTESIAN_POINT('',(2.30585093207739,-0.0216777463948104,-2.65475827351327E-18));
#262=CARTESIAN_POINT('',(2.30585093207739,-2.65475827351326E-18,0.0216777463948104));
#263=CARTESIAN_POINT('Origin',(2.30585093207739,0.,0.));
#264=CARTESIAN_POINT('',(2.20691009265412,-0.0576892668981926,-7.06489760520289E-18));
#265=CARTESIAN_POINT('Origin',(2.30585093207739,0.,0.));
#266=CARTESIAN_POINT('Origin',(2.33278165202429,0.,0.));
#267=CARTESIAN_POINT('',(2.33278165202429,-2.07322095918646E-18,0.0169291338582677));
#268=CARTESIAN_POINT('Origin',(2.33278165202429,-1.17161091414487E-17,0.0956692913385798));
#269=CARTESIAN_POINT('',(2.33278165202429,-0.0169291338582677,-2.07322095918646E-18));
#270=CARTESIAN_POINT('Origin',(2.33278165202429,0.,0.));
#271=CARTESIAN_POINT('Origin',(2.33278165202429,0.,0.));
#272=CARTESIAN_POINT('Origin',(2.40825380674557,0.,0.));
#273=CARTESIAN_POINT('',(2.48372596146685,-0.0169291338582677,-2.07322095918646E-18));
#274=CARTESIAN_POINT('Origin',(2.48372596146685,0.,0.));
#275=CARTESIAN_POINT('',(2.40825380674557,-0.0169291338582677,-2.07322095918646E-18));
#276=CARTESIAN_POINT('Origin',(2.48749919550959,0.,0.));
#277=CARTESIAN_POINT('',(2.49127242955233,-0.03,-3.67394039744206E-18));
#278=CARTESIAN_POINT('Origin',(2.49127242955233,0.,0.));
#279=CARTESIAN_POINT('',(2.48749919550959,-0.0234645669291339,-2.87358067831426E-18));
#280=CARTESIAN_POINT('Origin',(2.49186298073343,0.,0.));
#281=CARTESIAN_POINT('',(2.49245353191453,-0.03,-3.67394039744206E-18));
#282=CARTESIAN_POINT('Origin',(2.49245353191453,0.,0.));
#283=CARTESIAN_POINT('',(2.49186298073343,-0.03,-3.67394039744206E-18));
#284=CARTESIAN_POINT('Origin',(2.49622676595726,0.,0.));
#285=CARTESIAN_POINT('',(2.5,-0.0169291338582677,-2.07322095918646E-18));
#286=CARTESIAN_POINT('Origin',(2.5,0.,0.));
#287=CARTESIAN_POINT('',(2.49622676595726,-0.0234645669291339,-2.87358067831426E-18));
#288=CARTESIAN_POINT('Origin',(2.5,0.,0.));
#289=UNCERTAINTY_MEASURE_WITH_UNIT(LENGTH_MEASURE(0.000393700787401575),
#294,'DISTANCE_ACCURACY_VALUE',
'Maximum model space distance between geometric entities at asserted c
onnectivities');
#290=UNCERTAINTY_MEASURE_WITH_UNIT(LENGTH_MEASURE(0.000393700787401575),
#294,'DISTANCE_ACCURACY_VALUE',
'Maximum model space distance between geometric entities at asserted c
onnectivities');
#291=(
GEOMETRIC_REPRESENTATION_CONTEXT(3)
GLOBAL_UNCERTAINTY_ASSIGNED_CONTEXT((#289))
GLOBAL_UNIT_ASSIGNED_CONTEXT((#294,#298,#299))
REPRESENTATION_CONTEXT('','3D')
);
#292=(
GEOMETRIC_REPRESENTATION_CONTEXT(3)
GLOBAL_UNCERTAINTY_ASSIGNED_CONTEXT((#290))
GLOBAL_UNIT_ASSIGNED_CONTEXT((#294,#298,#299))
REPRESENTATION_CONTEXT('','3D')
);
#293=DIMENSIONAL_EXPONENTS(1.,0.,0.,0.,0.,0.,0.);
#294=(
CONVERSION_BASED_UNIT('inch',#297)
LENGTH_UNIT()
NAMED_UNIT(#293)
);
#295=(
LENGTH_UNIT()
NAMED_UNIT(*)
SI_UNIT(.MILLI.,.METRE.)
);
#296=(
LENGTH_UNIT()
NAMED_UNIT(*)
SI_UNIT($,.METRE.)
);
#297=LENGTH_MEASURE_WITH_UNIT(LENGTH_MEASURE(25.4),#295);
#298=(
NAMED_UNIT(*)
PLANE_ANGLE_UNIT()
SI_UNIT($,.RADIAN.)
);
#299=(
NAMED_UNIT(*)
SI_UNIT($,.STERADIAN.)
SOLID_ANGLE_UNIT()
);
#300=SHAPE_DEFINITION_REPRESENTATION(#301,#302);
#301=PRODUCT_DEFINITION_SHAPE('',$,#304);
#302=SHAPE_REPRESENTATION('',(#167),#291);
#303=PRODUCT_DEFINITION_CONTEXT('part definition',#308,'design');
#304=PRODUCT_DEFINITION('1310-.060-1-BR','1310-.060-1-BR v5',#305,#303);
#305=PRODUCT_DEFINITION_FORMATION('',$,#310);
#306=PRODUCT_RELATED_PRODUCT_CATEGORY('1310-.060-1-BR v5',
'1310-.060-1-BR v5',(#310));
#307=APPLICATION_PROTOCOL_DEFINITION('international standard',
'automotive_design',2009,#308);
#308=APPLICATION_CONTEXT(
'Core Data for Automotive Mechanical Design Process');
#309=PRODUCT_CONTEXT('part definition',#308,'mechanical');
#310=PRODUCT('1310-.060-1-BR','1310-.060-1-BR v5',$,(#309));
#311=PRESENTATION_STYLE_ASSIGNMENT((#312));
#312=SURFACE_STYLE_USAGE(.BOTH.,#313);
#313=SURFACE_SIDE_STYLE('',(#314));
#314=SURFACE_STYLE_FILL_AREA(#315);
#315=FILL_AREA_STYLE('Steel - Satin',(#316));
#316=FILL_AREA_STYLE_COLOUR('Steel - Satin',#317);
#317=COLOUR_RGB('Steel - Satin',0.627450980392157,0.627450980392157,0.627450980392157);
ENDSEC;
END-ISO-10303-21;
