0
SECTION
2
HEADER
9
$INSUNITS
70
1
9
$ACADVER
1
AC1014
9
$HANDSEED
5
FFFF
0
ENDSEC
0
SECTION
2
TABLES
0
TABLE
2
VPORT
5
8
100
AcDbSymbolTable
0
ENDTAB
0
TABLE
2
LTYPE
5
5
100
AcDbSymbolTable
0
LTYPE
5
14
100
AcDbSymbolTableRecord
100
AcDbLinetypeTableRecord
2
BYBLOCK
70
0
0
LTYPE
5
15
100
AcDbSymbolTableRecord
100
AcDbLinetypeTableRecord
2
BYLAYER
70
0
0
LTYPE
5
16
100
AcDbSymbolTableRecord
100
AcDbLinetypeTableRecord
2
DASHED
70
0
3
Dashed __ __ __ __ __ __ __ __ __ __ __ __ __ _
72
65
73
2
40
0.75
49
0.5
74
0
49
-0.25
74
0
0
ENDTAB
0
TABLE
2
LAYER
5
2
100
AcDbSymbolTable
70
2
0
LAYER
5
50
100
AcDbSymbolTableRecord
100
AcDbLayerTableRecord
2
0
70
0
62
7
6
CONTINUOUS
0
ENDTAB
0
TABLE
2
STYLE
5
3
100
AcDbSymbolTable
70
1
0
STYLE
5
11
100
AcDbSymbolTableRecord
100
AcDbTextStyleTableRecord
2
STANDARD
70
0
0
ENDTAB
0
TABLE
2
VIEW
5
6
100
AcDbSymbolTable
70
0
0
ENDTAB
0
TABLE
2
UCS
5
7
100
AcDbSymbolTable
70
0
0
ENDTAB
0
TABLE
2
APPID
5
9
100
AcDbSymbolTable
70
2
0
APPID
5
12
100
AcDbSymbolTableRecord
100
AcDbRegAppTableRecord
2
ACAD
70
0
0
ENDTAB
0
TABLE
2
DIMSTYLE
5
A
100
AcDbSymbolTable
70
1
0
ENDTAB
0
TABLE
2
BLOCK_RECORD
5
1
100
AcDbSymbolTable
70
1
0
BLOCK_RECORD
5
1F
100
AcDbSymbolTableRecord
100
AcDbBlockTableRecord
2
*MODEL_SPACE
0
BLOCK_RECORD
5
1B
100
AcDbSymbolTableRecord
100
AcDbBlockTableRecord
2
*PAPER_SPACE
0
ENDTAB
0
ENDSEC
0
SECTION
2
BLOCKS
0
BLOCK
5
20
100
AcDbEntity
100
AcDbBlockBegin
2
*MODEL_SPACE
0
ENDBLK
5
21
100
AcDbEntity
100
AcDbBlockEnd
0
BLOCK
5
1C
100
AcDbEntity
100
AcDbBlockBegin
2
*PAPER_SPACE
0
ENDBLK
5
1D
100
AcDbEntity
100
AcDbBlockEnd
0
ENDSEC
0
SECTION
2
ENTITIES
0
LWPOLYLINE
5
100
100
AcDbEntity
8
0
100
AcDbPolyline
90
48
70
1
43
0.0
10
2.9229999999999992
20
-0.70699999999999996
10
2.9229999999999992
20
-0.64192125984252002
42
-0.41421356237310569
10
2.9349999999999992
20
-0.62992125984251968
10
3.6279999999999992
20
-0.62992125984251957
10
3.6279999999999992
20
0.62992125984251957
10
2.9349999999999992
20
0.62992125984251968
42
-0.41421356237310147
10
2.9229999999999992
20
0.64192125984251991
10
2.9229999999999992
20
0.70699999999999996
10
2.8999999999999995
20
0.72999999999999998
10
2.6699999999999995
20
0.72999999999999987
42
-0.41421356237309626
10
2.6489999999999991
20
0.75100000000000011
10
2.6489999999999991
20
0.7959999999999996
10
2.6399999999999992
20
0.80499999999999983
10
0.90900000000000003
20
0.80499999999999983
42
-0.41421356237309503
10
0.86999999999999988
20
0.84399999999999986
10
0.86999999999999988
20
0.85099999999999998
42
0.41421356237309503
10
0.81699999999999995
20
0.90399999999999991
10
0.69000000000000006
20
0.90399999999999991
10
0.60699999999999998
20
0.745
10
0.47199999999999992
20
0.745
10
0.38899999999999996
20
0.90399999999999991
10
0.098999999999999519
20
0.90400000000000014
10
0.079000000000000001
20
0.8840000000000009
10
0.079000000000000042
20
0.6349999999999999
42
-0.4142135623730957
10
0.068999999999999895
20
0.62499999999999989
10
-3.4967654318902565e-16
20
0.62499999999999989
10
-1.8540154153445298
20
0.36534077298185352
42
0.37402118951943725
10
-1.9099999999999999
20
0.30096902229752298
10
-1.9099999999999999
20
-0.30096902229752298
42
0.37402118951943725
10
-1.8540154153445298
20
-0.36534077298185352
10
-3.4967654318902565e-16
20
-0.62499999999999989
10
0.068999999999999895
20
-0.62499999999999989
42
-0.4142135623730982
10
0.079000000000000001
20
-0.6349999999999999
10
0.079000000000000001
20
-0.8840000000000009
10
0.098999999999999519
20
-0.90400000000000014
10
0.38899999999999996
20
-0.90399999999999991
10
0.47199999999999992
20
-0.745
10
0.60699999999999998
20
-0.745
10
0.69000000000000006
20
-0.90399999999999991
10
0.81699999999999995
20
-0.90399999999999991
42
0.41421356237309503
10
0.86999999999999988
20
-0.85099999999999998
10
0.86999999999999988
20
-0.84399999999999986
42
-0.41421356237309503
10
0.90900000000000003
20
-0.80499999999999983
10
2.6399999999999992
20
-0.80499999999999983
10
2.6489999999999991
20
-0.7959999999999996
10
2.6489999999999991
20
-0.75100000000000022
42
-0.41421356237309748
10
2.6699999999999995
20
-0.72999999999999987
10
2.8999999999999995
20
-0.72999999999999998
0
LINE
5
101
100
AcDbEntity
8
0
100
AcDbLine
10
3.8570078740157481
20
-0.79228569065734111
30
0
11
3.6310078740157481
21
-0.79228569065734111
31
0
0
SPLINE
5
102
100
AcDbEntity
8
0
100
AcDbSpline
70
0
71
3
72
17
73
13
74
0
42
0.000000001
43
0.0000000001
44
0.0000000001
40
0.95232662964719861
40
0.95232662964719861
40
0.95232662964719861
40
0.95232662964719861
40
0.96603060722521317
40
0.96603060722521317
40
1.0783963020734775
40
1.0783963020734775
40
1.1925622084297745
40
1.1925622084297745
40
1.2832681193182858
40
1.2832681193182858
40
1.2832681193182858
40
1.2945563284469817
40
1.2945563284469817
40
1.2945563284469817
40
1.2945563284469817
10
3.6310078740157481
20
-0.79228569065734111
30
0
10
3.6292211250485207
20
-0.79237871816098548
30
0
10
3.6274480738733828
20
-0.79247689093988738
30
0
10
3.6112928191134444
20
-0.79342192545096013
30
0
10
3.5980745316586056
20
-0.79457755107212646
30
0
10
3.5767441463456864
20
-0.79673467044498347
30
0
10
3.5671715504194275
20
-0.79789248438601701
30
0
10
3.555611669601312
20
-0.79936815873206202
30
0
10
3.5524737204067094
20
-0.7998001016537748
30
0
10
3.5514063587845022
20
-0.79994560555004313
30
0
10
3.5512735272954692
20
-0.79996371328297944
30
0
10
3.551140699022767
20
-0.79998184478088008
30
0
10
3.551007874015748
20
-0.79999999999999982
30
0
0
SPLINE
5
103
100
AcDbEntity
8
0
100
AcDbSpline
70
0
71
3
72
17
73
13
74
0
42
0.000000001
43
0.0000000001
44
0.0000000001
40
1.3188999011235105
40
1.3188999011235105
40
1.3188999011235105
40
1.3188999011235105
40
1.3301881102538664
40
1.3301881102538664
40
1.3301881102538664
40
1.4208940211423684
40
1.4208940211423684
40
1.5350599274986652
40
1.5350599274986652
40
1.6474256223469295
40
1.6474256223469295
40
1.6611295999249442
40
1.6611295999249442
40
1.6611295999249442
40
1.6611295999249442
10
3.551007874015748
20
0.80000000000000027
30
0
10
3.5511406990227865
20
0.79998184478087786
30
0
10
3.5512735272954497
20
0.79996371328298266
30
0
10
3.5514063587845022
20
0.79994560555004357
30
0
10
3.5524737204067094
20
0.79980010165377535
30
0
10
3.555611669601312
20
0.79936815873206268
30
0
10
3.5671715504194275
20
0.79789248438601768
30
0
10
3.5767441463456864
20
0.79673467044498414
30
0
10
3.5980745316586056
20
0.79457755107212724
30
0
10
3.6112928191134444
20
0.79342192545096091
30
0
10
3.6274480738733828
20
0.79247689093988805
30
0
10
3.6292211250485207
20
0.79237871816098626
30
0
10
3.6310078740157481
20
0.79228569065734145
30
0
0
LINE
5
104
100
AcDbEntity
8
0
100
AcDbLine
10
3.6310078740157472
20
0.79228569065734145
30
0
11
3.8570078740157481
21
0.79228569065734145
31
0
0
LINE
5
105
100
AcDbEntity
8
0
100
AcDbLine
10
3.9370078740157477
20
-0.19086991843502049
30
0
11
3.9370078740157477
21
-0.12925143542073991
31
0
0
SPLINE
5
106
100
AcDbEntity
8
0
100
AcDbSpline
70
0
71
3
72
18
73
14
74
0
42
0.000000001
43
0.0000000001
44
0.0000000001
40
-0.90372355596099363
40
-0.90372355596099363
40
-0.90372355596099363
40
-0.90372355596099363
40
-0.84927712126571586
40
-0.84927712126571586
40
-0.79474518184602838
40
-0.79474518184602838
40
-0.72721484425213179
40
-0.72721484425213179
40
-0.65515828258568987
40
-0.65515828258568987
40
-0.56583033869631727
40
-0.56583033869631727
40
-0.52928031255724362
40
-0.52928031255724362
40
-0.52928031255724362
40
-0.52928031255724362
10
3.8570078740157481
20
0.79228569065734145
30
0
10
3.8644751066492056
20
0.79228569065734145
30
0
10
3.8719113362478539
20
0.79127688187745027
30
0
10
3.8862361120828459
20
0.78734607553164648
30
0
10
3.893048233936395
20
0.78444225698566239
30
0
10
3.9070187178174955
20
0.77621634905046488
30
0
10
3.9136541772083495
20
0.77061419788582797
30
0
10
3.9247962053519427
20
0.7579582120132623
30
0
10
3.9288150906728423
20
0.75122777453760581
30
0
10
3.9349572584339074
20
0.7370433024389228
30
0
10
3.9362719439147922
20
0.73008802519683336
30
0
10
3.9369499798465766
20
0.72269825182848779
30
0
10
3.9370078740157477
20
0.72082546917974422
30
0
10
3.9370078740157477
20
0.71930615282831656
30
0
0
SPLINE
5
107
100
AcDbEntity
8
0
100
AcDbSpline
70
0
71
3
72
18
73
14
74
0
42
0.000000001
43
0.0000000001
44
0.0000000001
40
-0.39470598660291589
40
-0.39470598660291589
40
-0.39470598660291589
40
-0.39470598660291589
40
-0.38273487637561093
40
-0.38273487637561093
40
-0.2962874538347719
40
-0.2962874538347719
40
-0.22359395074717864
40
-0.22359395074717864
40
-0.15249359469724028
40
-0.15249359469724028
40
-0.077620830938047683
40
-0.077620830938047683
40
0
40
0
40
0
40
0
10
3.9370078740157477
20
-0.719306152828316
30
0
10
3.9370078740157477
20
-0.71976743935066101
30
0
10
3.9370025233366914
20
-0.72025915547000263
30
0
10
3.9368978561166941
20
-0.72452299046236268
30
0
10
3.9364282044565284
20
-0.72988984491524778
30
0
10
3.9330833121180451
20
-0.74174410171868166
30
0
10
3.930616453495968
20
-0.747880613234019
30
0
10
3.9226891370111754
20
-0.76063240318022907
30
0
10
3.9174982594611678
20
-0.76687690593191826
30
0
10
3.9039438018814074
20
-0.77842987945585207
30
0
10
3.8957483951847167
20
-0.78337178221687465
30
0
10
3.8772930988053393
20
-0.79040111066077012
30
0
10
3.8671943347687727
20
-0.79228569065734078
30
0
10
3.8570078740157481
20
-0.79228569065734078
30
0
0
LINE
5
108
100
AcDbEntity
8
0
100
AcDbLine
10
3.9370078740157477
20
0.63436104779966407
30
0
11
3.9370078740157477
21
0.66178385257828132
31
0
0
LINE
5
109
100
AcDbEntity
8
0
100
AcDbLine
10
3.9370078740157477
20
-0.47318714407879481
30
0
11
3.9370078740157477
21
-0.42377295732659431
31
0
0
LINE
5
110
100
AcDbEntity
8
0
100
AcDbLine
10
3.9370078740157477
20
0.12925143542074122
30
0
11
3.9370078740157477
21
0.1908699184350198
31
0
0
LINE
5
111
100
AcDbEntity
8
0
100
AcDbLine
10
3.9370078740157477
20
0.42377295732659481
30
0
11
3.9370078740157477
21
0.47318714407879531
31
0
0
LINE
5
112
100
AcDbEntity
8
0
100
AcDbLine
10
3.9370078740157477
20
-0.6617838525782811
30
0
11
3.9370078740157477
21
-0.63436104779966351
31
0
0
LINE
5
113
100
AcDbEntity
8
0
100
AcDbLine
10
3.9370078740157477
20
0.1908699184350198
30
0
11
3.9370078740157477
21
0.42377295732659481
31
0
0
LINE
5
114
100
AcDbEntity
8
0
100
AcDbLine
10
3.9370078740157477
20
-0.63436104779966351
30
0
11
3.9370078740157477
21
-0.47318714407879481
31
0
0
LINE
5
115
100
AcDbEntity
8
0
100
AcDbLine
10
3.9370078740157477
20
0.47318714407879531
30
0
11
3.9370078740157477
21
0.63436104779966407
31
0
0
LINE
5
116
100
AcDbEntity
8
0
100
AcDbLine
10
3.9370078740157477
20
-0.719306152828316
30
0
11
3.9370078740157477
21
-0.6617838525782811
31
0
0
LINE
5
117
100
AcDbEntity
8
0
100
AcDbLine
10
3.9370078740157477
20
0.66178385257828132
30
0
11
3.9370078740157468
21
0.71930615282831645
31
0
0
LINE
5
118
100
AcDbEntity
8
0
100
AcDbLine
10
3.9370078740157477
20
-0.42377295732659431
30
0
11
3.9370078740157477
21
-0.19086991843502049
31
0
0
LINE
5
119
100
AcDbEntity
8
0
100
AcDbLine
10
3.9370078740157477
20
-0.12925143542073991
30
0
11
3.9370078740157477
21
0.12925143542074122
31
0
0
LINE
5
120
100
AcDbEntity
8
0
100
AcDbLine
10
2.7420078740157479
20
-0.78999999999999981
30
0
11
2.7420078740157479
21
0.79000000000000015
31
0
0
LINE
5
121
100
AcDbEntity
8
0
100
AcDbLine
10
2.7520078740157476
20
-0.7999999999999996
30
0
11
3.5510078740157471
21
-0.79999999999999993
31
0
0
LINE
5
122
100
AcDbEntity
8
0
100
AcDbLine
10
2.7520078740157476
20
0.80000000000000027
30
0
11
3.551007874015748
21
0.80000000000000027
31
0
0
LINE
5
123
100
AcDbEntity
8
0
100
AcDbLine
10
2.7420078740157479
20
-0.78999999999999981
30
0
11
2.7520078740157476
21
-0.7999999999999996
31
0
0
LINE
5
124
100
AcDbEntity
8
0
100
AcDbLine
10
2.7420078740157479
20
0.79000000000000015
30
0
11
2.7520078740157476
21
0.80000000000000027
31
0
0
ENDSEC
0
SECTION
2
OBJECTS
0
DICTIONARY
5
C
100
AcDbDictionary
3
ACAD_GROUP
350
D
3
ACAD_MLINESTYLE
350
17
0
DICTIONARY
5
D
100
AcDbDictionary
0
DICTIONARY
5
1A
330
C
100
AcDbDictionary
0
DICTIONARY
5
17
100
AcDbDictionary
0
ENDSEC
0
EOF
