  0
SECTION
  2
HEADER
  9
$ACADVER
  1
AC1015
  9
$ACADMAINTVER
 70
     6
  9
$DWGCODEPAGE
  3
ANSI_1252
  9
$INSBASE
 10
0.0
 20
0.0
 30
0.0
  9
$EXTMIN
 10
0.0
 20
-1.2500000013
 30
0.0
  9
$EXTMAX
 10
5.6900026681
 20
1.2502132949
 30
0.0
  9
$LIMMIN
 10
0.0
 20
0.0
  9
$LIMMAX
 10
12.0
 20
9.0
  9
$ORTHOMODE
 70
     0
  9
$REGENMODE
 70
     1
  9
$FILLMODE
 70
     1
  9
$QTEXTMODE
 70
     0
  9
$MIRRTEXT
 70
     1
  9
$LTSCALE
 40
1.0
  9
$ATTMODE
 70
     1
  9
$TEXTSIZE
 40
0.125
  9
$TRACEWID
 40
0.05
  9
$TEXTSTYLE
  7
Standard
  9
$CLAYER
  8
0
  9
$CELTYPE
  6
ByLayer
  9
$CECOLOR
 62
   256
  9
$CELTSCALE
 40
1.0
  9
$DISPSILH
 70
     0
  9
$DIMSCALE
 40
1.0
  9
$DIMASZ
 40
0.13
  9
$DIMEXO
 40
0.05
  9
$DIMDLI
 40
0.38
  9
$DIMRND
 40
0.0
  9
$DIMDLE
 40
0.0
  9
$DIMEXE
 40
0.125
  9
$DIMTP
 40
0.0
  9
$DIMTM
 40
0.0
  9
$DIMTXT
 40
0.125
  9
$DIMCEN
 40
0.09
  9
$DIMTSZ
 40
0.0
  9
$DIMTOL
 70
     0
  9
$DIMLIM
 70
     0
  9
$DIMTIH
 70
     1
  9
$DIMTOH
 70
     1
  9
$DIMSE1
 70
     0
  9
$DIMSE2
 70
     0
  9
$DIMTAD
 70
     0
  9
$DIMZIN
 70
     0
  9
$DIMBLK
  1

  9
$DIMASO
 70
     1
  9
$DIMSHO
 70
     1
  9
$DIMPOST
  1

  9
$DIMAPOST
  1

  9
$DIMALT
 70
     0
  9
$DIMALTD
 70
     2
  9
$DIMALTF
 40
25.4
  9
$DIMLFAC
 40
1.0
  9
$DIMTOFL
 70
     0
  9
$DIMTVP
 40
0.0
  9
$DIMTIX
 70
     0
  9
$DIMSOXD
 70
     0
  9
$DIMSAH
 70
     0
  9
$DIMBLK1
  1

  9
$DIMBLK2
  1

  9
$DIMSTYLE
  2
Standard
  9
$DIMCLRD
 70
     0
  9
$DIMCLRE
 70
     0
  9
$DIMCLRT
 70
     0
  9
$DIMTFAC
 40
1.0
  9
$DIMGAP
 40
0.06
  9
$DIMJUST
 70
     0
  9
$DIMSD1
 70
     0
  9
$DIMSD2
 70
     0
  9
$DIMTOLJ
 70
     1
  9
$DIMTZIN
 70
     0
  9
$DIMALTZ
 70
     0
  9
$DIMALTTZ
 70
     0
  9
$DIMUPT
 70
     0
  9
$DIMDEC
 70
     2
  9
$DIMTDEC
 70
     2
  9
$DIMALTU
 70
     2
  9
$DIMALTTD
 70
     2
  9
$DIMTXSTY
  7
Standard
  9
$DIMAUNIT
 70
     0
  9
$DIMADEC
 70
     2
  9
$DIMALTRND
 40
0.0
  9
$DIMAZIN
 70
     0
  9
$DIMDSEP
 70
    46
  9
$DIMATFIT
 70
     3
  9
$DIMFRAC
 70
     0
  9
$DIMLDRBLK
  1

  9
$DIMLUNIT
 70
     2
  9
$DIMLWD
 70
    -2
  9
$DIMLWE
 70
    -2
  9
$DIMTMOVE
 70
     0
  9
$LUNITS
 70
     2
  9
$LUPREC
 70
     2
  9
$SKETCHINC
 40
0.1
  9
$FILLETRAD
 40
0.5
  9
$AUNITS
 70
     0
  9
$AUPREC
 70
     2
  9
$MENU
  1
.
  9
$ELEVATION
 40
0.0
  9
$PELEVATION
 40
0.0
  9
$THICKNESS
 40
0.0
  9
$LIMCHECK
 70
     0
  9
$CHAMFERA
 40
0.0
  9
$CHAMFERB
 40
0.0
  9
$CHAMFERC
 40
0.0
  9
$CHAMFERD
 40
0.0
  9
$SKPOLY
 70
     0
  9
$TDCREATE
 40
2458164.796125544
  9
$TDUCREATE
 40
2458165.046125544
  9
$TDUPDATE
 40
2458164.796141053
  9
$TDUUPDATE
 40
2458165.046141053
  9
$TDINDWG
 40
0.0000000116
  9
$TDUSRTIMER
 40
0.0000000116
  9
$USRTIMER
 70
     1
  9
$ANGBASE
 50
0.0
  9
$ANGDIR
 70
     0
  9
$PDMODE
 70
     0
  9
$PDSIZE
 40
-1.0
  9
$PLINEWID
 40
0.0
  9
$SPLFRAME
 70
     0
  9
$SPLINETYPE
 70
     6
  9
$SPLINESEGS
 70
     8
  9
$HANDSEED
  5
1B2
  9
$SURFTAB1
 70
     6
  9
$SURFTAB2
 70
     6
  9
$SURFTYPE
 70
     6
  9
$SURFU
 70
     6
  9
$SURFV
 70
     6
  9
$UCSBASE
  2

  9
$UCSNAME
  2

  9
$UCSORG
 10
0.0
 20
0.0
 30
0.0
  9
$UCSXDIR
 10
1.0
 20
0.0
 30
0.0
  9
$UCSYDIR
 10
0.0
 20
1.0
 30
0.0
  9
$UCSORTHOREF
  2

  9
$UCSORTHOVIEW
 70
     0
  9
$UCSORGTOP
 10
0.0
 20
0.0
 30
0.0
  9
$UCSORGBOTTOM
 10
0.0
 20
0.0
 30
0.0
  9
$UCSORGLEFT
 10
0.0
 20
0.0
 30
0.0
  9
$UCSORGRIGHT
 10
0.0
 20
0.0
 30
0.0
  9
$UCSORGFRONT
 10
0.0
 20
0.0
 30
0.0
  9
$UCSORGBACK
 10
0.0
 20
0.0
 30
0.0
  9
$PUCSBASE
  2

  9
$PUCSNAME
  2

  9
$PUCSORG
 10
0.0
 20
0.0
 30
0.0
  9
$PUCSXDIR
 10
1.0
 20
0.0
 30
0.0
  9
$PUCSYDIR
 10
0.0
 20
1.0
 30
0.0
  9
$PUCSORTHOREF
  2

  9
$PUCSORTHOVIEW
 70
     0
  9
$PUCSORGTOP
 10
0.0
 20
0.0
 30
0.0
  9
$PUCSORGBOTTOM
 10
0.0
 20
0.0
 30
0.0
  9
$PUCSORGLEFT
 10
0.0
 20
0.0
 30
0.0
  9
$PUCSORGRIGHT
 10
0.0
 20
0.0
 30
0.0
  9
$PUCSORGFRONT
 10
0.0
 20
0.0
 30
0.0
  9
$PUCSORGBACK
 10
0.0
 20
0.0
 30
0.0
  9
$USERI1
 70
     0
  9
$USERI2
 70
     0
  9
$USERI3
 70
     0
  9
$USERI4
 70
     0
  9
$USERI5
 70
     0
  9
$USERR1
 40
0.0
  9
$USERR2
 40
0.0
  9
$USERR3
 40
0.0
  9
$USERR4
 40
0.0
  9
$USERR5
 40
0.0
  9
$WORLDVIEW
 70
     1
  9
$SHADEDGE
 70
     3
  9
$SHADEDIF
 70
    70
  9
$TILEMODE
 70
     1
  9
$MAXACTVP
 70
    64
  9
$PINSBASE
 10
0.0
 20
0.0
 30
0.0
  9
$PLIMCHECK
 70
     0
  9
$PEXTMIN
 10
1.0000000000E+20
 20
1.0000000000E+20
 30
1.0000000000E+20
  9
$PEXTMAX
 10
-1.0000000000E+20
 20
-1.0000000000E+20
 30
-1.0000000000E+20
  9
$PLIMMIN
 10
0.0
 20
0.0
  9
$PLIMMAX
 10
12.0
 20
9.0
  9
$UNITMODE
 70
     0
  9
$VISRETAIN
 70
     1
  9
$PLINEGEN
 70
     0
  9
$PSLTSCALE
 70
     1
  9
$TREEDEPTH
 70
  3020
  9
$CMLSTYLE
  2
Standard
  9
$CMLJUST
 70
     0
  9
$CMLSCALE
 40
1.0
  9
$PROXYGRAPHICS
 70
     1
  9
$MEASUREMENT
 70
     0
  9
$CELWEIGHT
370
    -1
  9
$ENDCAPS
280
     0
  9
$JOINSTYLE
280
     0
  9
$LWDISPLAY
290
     1
  9
$INSUNITS
 70
     1
  9
$HYPERLINKBASE
  1

  9
$STYLESHEET
  1

  9
$XEDIT
290
     1
  9
$CEPSNTYPE
380
     0
  9
$PSTYLEMODE
290
     1
  9
$FINGERPRINTGUID
  2
{5B7D44CF-9EB7-44AF-B07F-99D4A89900C8}
  9
$VERSIONGUID
  2
{FAEB1C32-E019-11D5-929B-00C0DF256EC4}
  9
$EXTNAMES
290
     1
  9
$PSVPSCALE
 40
0.0
  9
$OLESTARTUP
290
     0
  0
ENDSEC
  0
SECTION
  2
CLASSES
  0
CLASS
  1
ACDBDICTIONARYWDFLT
  2
AcDbDictionaryWithDefault
  3
ObjectDBX Classes
 90
        0
280
     0
281
     0
  0
CLASS
  1
VISUALSTYLE
  2
AcDbVisualStyle
  3
ObjectDBX Classes
 90
     4095
280
     0
281
     0
  0
CLASS
  1
MATERIAL
  2
AcDbMaterial
  3
ObjectDBX Classes
 90
     1153
280
     0
281
     0
  0
CLASS
  1
SCALE
  2
AcDbScale
  3
ObjectDBX Classes
 90
     1153
280
     0
281
     0
  0
CLASS
  1
TABLESTYLE
  2
AcDbTableStyle
  3
ObjectDBX Classes
 90
     4095
280
     0
281
     0
  0
CLASS
  1
MLEADERSTYLE
  2
AcDbMLeaderStyle
  3
ACDB_MLEADERSTYLE_CLASS
 90
     4095
280
     0
281
     0
  0
CLASS
  1
SUN
  2
AcDbSun
  3
SCENEOE
 90
     1153
280
     0
281
     0
  0
CLASS
  1
ACDBPLACEHOLDER
  2
AcDbPlaceHolder
  3
ObjectDBX Classes
 90
        0
280
     0
281
     0
  0
CLASS
  1
LAYOUT
  2
AcDbLayout
  3
ObjectDBX Classes
 90
        0
280
     0
281
     0
  0
ENDSEC
  0
SECTION
  2
TABLES
  0
TABLE
  2
VPORT
  5
8
330
0
100
AcDbSymbolTable
 70
     1
  0
VPORT
  5
29
330
8
100
AcDbSymbolTableRecord
100
AcDbViewportTableRecord
  2
*Active
 70
     0
 10
0.0
 20
0.0
 11
1.0
 21
1.0
 12
2.8450013341
 22
0.0001066468
 13
0.0
 23
0.0
 14
0.5
 24
0.5
 15
0.5
 25
0.5
 16
0.0
 26
0.0
 36
1.0
 17
0.0
 27
0.0
 37
0.0
 40
2.5502175622
 41
2.2758068988
 42
50.0
 43
0.0
 44
0.0
 50
0.0
 51
0.0
 71
     0
 72
   100
 73
     1
 74
     3
 75
     0
 76
     0
 77
     0
 78
     0
281
     0
 65
     1
110
0.0
120
0.0
130
0.0
111
1.0
121
0.0
131
0.0
112
0.0
122
1.0
132
0.0
 79
     0
146
0.0
  0
ENDTAB
  0
TABLE
  2
LTYPE
  5
5
330
0
100
AcDbSymbolTable
 70
     6
  0
LTYPE
  5
14
330
5
100
AcDbSymbolTableRecord
100
AcDbLinetypeTableRecord
  2
ByBlock
 70
     0
  3

 72
    65
 73
     0
 40
0.0
  0
LTYPE
  5
15
330
5
100
AcDbSymbolTableRecord
100
AcDbLinetypeTableRecord
  2
ByLayer
 70
     0
  3

 72
    65
 73
     0
 40
0.0
  0
LTYPE
  5
16
330
5
100
AcDbSymbolTableRecord
100
AcDbLinetypeTableRecord
  2
Continuous
 70
     0
  3
Solid line
 72
    65
 73
     0
 40
0.0
  0
LTYPE
  5
6E
330
5
100
AcDbSymbolTableRecord
100
AcDbLinetypeTableRecord
  2
HIDDEN
 70
     0
  3
Hidden __ __ __ __ __ __ __ __ __ __ __ __ __ __
 72
    65
 73
     2
 40
0.075
 49
0.05
 74
     0
 49
-0.025
 74
     0
  0
LTYPE
  5
6F
330
5
100
AcDbSymbolTableRecord
100
AcDbLinetypeTableRecord
  2
PHANTOM
 70
     0
  3
Phantom ______  __  __  ______  __  __  ______
 72
    65
 73
     6
 40
0.5
 49
0.25
 74
     0
 49
-0.05
 74
     0
 49
0.05
 74
     0
 49
-0.05
 74
     0
 49
0.05
 74
     0
 49
-0.05
 74
     0
  0
LTYPE
  5
70
330
5
100
AcDbSymbolTableRecord
100
AcDbLinetypeTableRecord
  2
CENTER
 70
     0
  3
Center ____ _ ____ _ ____ _ ____ _ ____ _ ____
 72
    65
 73
     4
 40
0.4
 49
0.25
 74
     0
 49
-0.05
 74
     0
 49
0.05
 74
     0
 49
-0.05
 74
     0
  0
LTYPE
  5
71
330
5
100
AcDbSymbolTableRecord
100
AcDbLinetypeTableRecord
  2
CENTERX2
 70
     0
  3
Center (2x) ________  __  ________  __  _____
 72
    65
 73
     4
 40
0.8
 49
0.5
 74
     0
 49
-0.1
 74
     0
 49
0.1
 74
     0
 49
-0.1
 74
     0
  0
LTYPE
  5
72
330
5
100
AcDbSymbolTableRecord
100
AcDbLinetypeTableRecord
  2
DOT2
 70
     0
  3
Dot (.5x) ........................................
 72
    65
 73
     2
 40
0.025
 49
0.0
 74
     0
 49
-0.025
 74
     0
  0
ENDTAB
  0
TABLE
  2
LAYER
  5
2
330
0
100
AcDbSymbolTable
 70
     1
  0
LAYER
  5
10
330
2
100
AcDbSymbolTableRecord
100
AcDbLayerTableRecord
  2
0
 70
     0
 62
     7
  6
Continuous
370
    -3
390
F
  0
ENDTAB
  0
TABLE
  2
STYLE
  5
3
330
0
100
AcDbSymbolTable
 70
     1
  0
STYLE
  5
11
330
3
100
AcDbSymbolTableRecord
100
AcDbTextStyleTableRecord
  2
Standard
 70
     0
 40
0.0
 41
1.0
 50
0.0
 71
     0
 42
0.125
  3
txt
  4

  0
ENDTAB
  0
TABLE
  2
VIEW
  5
6
330
0
100
AcDbSymbolTable
 70
     0
  0
ENDTAB
  0
TABLE
  2
UCS
  5
7
330
0
100
AcDbSymbolTable
 70
     0
  0
ENDTAB
  0
TABLE
  2
APPID
  5
9
330
0
100
AcDbSymbolTable
 70
     1
  0
APPID
  5
12
330
9
100
AcDbSymbolTableRecord
100
AcDbRegAppTableRecord
  2
ACAD
 70
     0
  0
ENDTAB
  0
TABLE
  2
DIMSTYLE
  5
A
330
0
100
AcDbSymbolTable
 70
     1
100
AcDbDimStyleTable
  0
DIMSTYLE
105
27
330
A
100
AcDbSymbolTableRecord
100
AcDbDimStyleTableRecord
  2
Standard
 70
     0
178
     0
340
11
  0
ENDTAB
  0
TABLE
  2
BLOCK_RECORD
  5
1
330
0
100
AcDbSymbolTable
 70
     1
  0
BLOCK_RECORD
  5
1F
330
1
100
AcDbSymbolTableRecord
100
AcDbBlockTableRecord
  2
*Model_Space
340
22
  0
BLOCK_RECORD
  5
1B
330
1
100
AcDbSymbolTableRecord
100
AcDbBlockTableRecord
  2
*Paper_Space
340
1E
  0
BLOCK_RECORD
  5
23
330
1
100
AcDbSymbolTableRecord
100
AcDbBlockTableRecord
  2
*Paper_Space0
340
26
  0
ENDTAB
  0
ENDSEC
  0
SECTION
  2
BLOCKS
  0
BLOCK
  5
20
330
1F
100
AcDbEntity
  8
0
100
AcDbBlockBegin
  2
*Model_Space
 70
     0
 10
0.0
 20
0.0
 30
0.0
  3
*Model_Space
  1

  0
ENDBLK
  5
21
330
1F
100
AcDbEntity
  8
0
100
AcDbBlockEnd
  0
BLOCK
  5
1C
330
1B
100
AcDbEntity
 67
     1
  8
0
100
AcDbBlockBegin
  2
*Paper_Space
 70
     0
 10
0.0
 20
0.0
 30
0.0
  3
*Paper_Space
  1

  0
ENDBLK
  5
1D
330
1B
100
AcDbEntity
 67
     1
  8
0
100
AcDbBlockEnd
  0
BLOCK
  5
24
330
23
100
AcDbEntity
  8
0
100
AcDbBlockBegin
  2
*Paper_Space0
 70
     0
 10
0.0
 20
0.0
 30
0.0
  3
*Paper_Space0
  1

  0
ENDBLK
  5
25
330
23
100
AcDbEntity
  8
0
100
AcDbBlockEnd
  0
ENDSEC
  0
SECTION
  2
ENTITIES
  0
SPLINE
  5
A1
330
1F
100
AcDbEntity
  8
0
  6
Continuous
 62
     7
370
    25
100
AcDbSpline
210
0.0
220
0.0
230
1.0
 70
     8
 71
     3
 72
     9
 73
     5
 74
     0
 42
0.000000001
 43
0.00000001
 40
0.0
 40
0.0
 40
0.0
 40
0.0
 40
0.4726130566371189
 40
1.0
 40
1.0
 40
1.0
 40
1.0
 10
3.086215734435204
 20
0.3379491364264005
 30
0.0
 10
3.073069709986173
 20
0.3379585065861794
 30
0.0
 10
3.045254091554953
 20
0.3379783328682665
 30
0.0
 10
3.017259925135219
 20
0.3379869913315899
 30
0.0
 10
3.002496167275124
 20
0.3379915576920963
 30
0.0
  0
SPLINE
  5
A4
330
1F
100
AcDbEntity
  8
0
  6
Continuous
 62
     7
370
    25
100
AcDbSpline
210
0.0
220
0.0
230
1.0
 70
     8
 71
     3
 72
     8
 73
     4
 74
     0
 42
0.000000001
 43
0.00000001
 40
0.0
 40
0.0
 40
0.0
 40
0.0
 40
1.0
 40
1.0
 40
1.0
 40
1.0
 10
3.001496573295606
 20
0.3371269865652873
 30
0.0
 10
2.998674649886713
 20
0.332247307844059
 30
0.0
 10
2.995848711836385
 20
0.3273716424015594
 30
0.0
 10
2.993018769141979
 20
0.3225000000000007
 30
0.0
  0
SPLINE
  5
A5
330
1F
100
AcDbEntity
  8
0
  6
Continuous
 62
     7
370
    25
100
AcDbSpline
210
0.0
220
0.0
230
1.0
 70
     8
 71
     3
 72
     8
 73
     4
 74
     0
 42
0.000000001
 43
0.00000001
 40
0.0
 40
0.0
 40
0.0
 40
0.0
 40
0.0000341446187597
 40
0.0000341446187597
 40
0.0000341446187597
 40
0.0000341446187597
 10
3.001496573588674
 20
0.3371269815860731
 30
0.0
 10
3.001829847288646
 20
0.33741540729949
 30
0.0
 10
3.002163105257868
 20
0.337703820851451
 30
0.0
 10
3.002496347446828
 20
0.3379922221676352
 30
0.0
  0
SPLINE
  5
A7
330
1F
100
AcDbEntity
  8
0
  6
Continuous
 62
     7
370
    25
100
AcDbSpline
210
0.0
220
0.0
230
1.0
 70
     8
 71
     3
 72
    15
 73
    11
 74
     0
 42
0.000000001
 43
0.00000001
 40
0.0
 40
0.0
 40
0.0
 40
0.0
 40
0.0461173253370684
 40
0.1255350799531909
 40
0.250783081647938
 40
0.4998653579695717
 40
0.6215688492056755
 40
0.7499573376094861
 40
0.8173085819205026
 40
1.0
 40
1.0
 40
1.0
 40
1.0
 10
3.40875079844011
 20
0.3375387797431674
 30
0.0
 10
3.409452799204808
 20
0.3375335430697186
 30
0.0
 10
3.411363701918257
 20
0.3375192884221369
 30
0.0
 10
3.415151869476391
 20
0.3376443822874043
 30
0.0
 10
3.421804361740681
 20
0.3377226828071698
 30
0.0
 10
3.428332206830368
 20
0.3378247950545746
 30
0.0
 10
3.433441625198176
 20
0.3379233189204057
 30
0.0
 10
3.436007318075286
 20
0.3379705622787394
 30
0.0
 10
3.438407899314443
 20
0.3381259450276149
 30
0.0
 10
3.439161920223615
 20
0.3381238741069941
 30
0.0
 10
3.439712838806233
 20
0.338122361007504
 30
0.0
  0
SPLINE
  5
A8
330
1F
100
AcDbEntity
  8
0
  6
Continuous
 62
     7
370
    25
100
AcDbSpline
210
0.0
220
0.0
230
1.0
 70
    24
 71
     3
 72
    22
 73
    18
 74
     0
 42
0.000000001
 43
0.00000001
 40
0.0
 40
0.0
 40
0.0
 40
0.0
 40
0.0000016363480688
 40
0.1192547301093078
 40
0.2432683310615581
 40
0.3706717925751121
 40
0.4998403970266023
 40
0.6290090014780926
 40
0.6927581508215916
 40
0.7565204675573055
 40
0.8185706487200353
 40
0.8806336463188282
 40
0.9045275490647313
 40
0.9283884920624799
 40
0.9522391108147277
 40
0.9761020702037161
 40
1.0
 40
1.0
 40
1.0
 40
1.0
 10
3.44
 20
1.21874999995689
 30
0.0
 10
3.44
 20
1.218749999970654
 30
0.0
 10
3.440000000006505
 20
1.218751003114948
 30
0.0
 10
3.439999999996861
 20
1.208925207992654
 30
0.0
 10
3.440000000000882
 20
1.163773667071098
 30
0.0
 10
3.439999999999758
 20
1.086565701352411
 30
0.0
 10
3.440000000000067
 20
0.9785571776178851
 30
0.0
 10
3.439999999999992
 20
0.8657556714146387
 30
0.0
 10
3.440000000000002
 20
0.7644870301506201
 30
0.0
 10
3.44
 20
0.684546414864129
 30
0.0
 10
3.440000000000002
 20
0.600874021262313
 30
0.0
 10
3.439999999999999
 20
0.5318752501683006
 30
0.0
 10
3.440000000000001
 20
0.4793649087105415
 30
0.0
 10
3.440000000000001
 20
0.4446717357328897
 30
0.0
 10
3.440000000000001
 20
0.409566375014433
 30
0.0
 10
3.44
 20
0.3740771700976268
 30
0.0
 10
3.44
 20
0.3501149050699996
 30
0.0
 10
3.44
 20
0.3381250000000001
 30
0.0
  0
SPLINE
  5
A9
330
1F
100
AcDbEntity
  8
0
  6
Continuous
 62
     7
370
    25
100
AcDbSpline
210
0.0
220
0.0
230
1.0
 70
     8
 71
     3
 72
     8
 73
     4
 74
     0
 42
0.000000001
 43
0.00000001
 40
0.0
 40
0.0
 40
0.0
 40
0.0
 40
1.0
 40
1.0
 40
1.0
 40
1.0
 10
3.439712838806233
 20
0.338122361007504
 30
0.0
 10
3.439903985865186
 20
0.3381270439464032
 30
0.0
 10
3.44
 20
0.3381267323034914
 30
0.0
 10
3.44
 20
0.3381250000000001
 30
0.0
  0
SPLINE
  5
AA
330
1F
100
AcDbEntity
  8
0
  6
Continuous
 62
     7
370
    25
100
AcDbSpline
210
0.0
220
0.0
230
1.0
 70
     8
 71
     3
 72
     9
 73
     5
 74
     0
 42
0.000000001
 43
0.00000001
 40
0.0
 40
0.0
 40
0.0
 40
0.0
 40
0.5066959242045687
 40
1.0
 40
1.0
 40
1.0
 40
1.0
 10
3.439718908829895
 20
-0.3381164062117305
 30
0.0
 10
3.43980123341726
 20
-0.3381322580338819
 30
0.0
 10
3.439963706773436
 20
-0.3381635427184316
 30
0.0
 10
3.439986344034368
 20
-0.3381427086323465
 30
0.0
 10
3.439997511087451
 20
-0.3381324310927651
 30
0.0
  0
SPLINE
  5
AB
330
1F
100
AcDbEntity
  8
0
  6
Continuous
 62
     7
370
    25
100
AcDbSpline
210
0.0
220
0.0
230
1.0
 70
    24
 71
     3
 72
    31
 73
    27
 74
     0
 42
0.000000001
 43
0.00000001
 40
0.0
 40
0.0
 40
0.0
 40
0.0
 40
0.0132758694201663
 40
0.0265384781536906
 40
0.0397916957346856
 40
0.0530393999264779
 40
0.066285473334498
 40
0.0795337999979475
 40
0.0927882619751714
 40
0.1060527359377254
 40
0.1193310897880434
 40
0.181361272628059
 40
0.2434042677703645
 40
0.3071328714734219
 40
0.370874638319488
 40
0.5000016140938723
 40
0.6291285898682568
 40
0.6928571940255678
 40
0.7565989613358011
 40
0.8186291448590302
 40
0.8806721406916556
 40
0.9045562476797878
 40
0.9284084541275656
 40
0.9522513862620308
 40
0.9761076966985687
 40
1.0
 40
1.0
 40
1.0
 40
1.0
 10
3.44
 20
-0.3381299512477551
 30
0.0
 10
3.440000000000001
 20
-0.3448001584686954
 30
0.0
 10
3.440000000000001
 20
-0.3581339103316522
 30
0.0
 10
3.44
 20
-0.3779956388828519
 30
0.0
 10
3.440000000000002
 20
-0.3977399723374893
 30
0.0
 10
3.44
 20
-0.4173579581146441
 30
0.0
 10
3.440000000000002
 20
-0.4368519820035739
 30
0.0
 10
3.44
 20
-0.4562214147334843
 30
0.0
 10
3.440000000000001
 20
-0.4754663586191199
 30
0.0
 10
3.440000000000001
 20
-0.4945870046392237
 30
0.0
 10
3.440000000000002
 20
-0.536819186779072
 30
0.0
 10
3.440000000000001
 20
-0.6008731652228843
 30
0.0
 10
3.440000000000001
 20
-0.6845393063780135
 30
0.0
 10
3.44
 20
-0.7644855665592192
 30
0.0
 10
3.440000000000001
 20
-0.8657552216584264
 30
0.0
 10
3.44
 20
-0.9785560889166246
 30
0.0
 10
3.44
 20
-1.06875684524346
 30
0.0
 10
3.44
 20
-1.125707630149092
 30
0.0
 10
3.44
 20
-1.160218927324014
 30
0.0
 10
3.44
 20
-1.186861185244677
 30
0.0
 10
3.440000000000003
 20
-1.201789186164908
 30
0.0
 10
3.44
 20
-1.209726857125939
 30
0.0
 10
3.440000000000001
 20
-1.213763384715483
 30
0.0
 10
3.44
 20
-1.216625604280689
 30
0.0
 10
3.440000000000002
 20
-1.218417965953577
 30
0.0
 10
3.440000000000001
 20
-1.218639266377352
 30
0.0
 10
3.44
 20
-1.218749999997276
 30
0.0
  0
SPLINE
  5
AC
330
1F
100
AcDbEntity
  8
0
  6
Continuous
 62
     7
370
    25
100
AcDbSpline
210
0.0
220
0.0
230
1.0
 70
     8
 71
     3
 72
    16
 73
    12
 74
     0
 42
0.000000001
 43
0.00000001
 40
0.0
 40
0.0
 40
0.0
 40
0.0
 40
0.0776881060750801
 40
0.1573147960955451
 40
0.2391218800961382
 40
0.323358672584214
 40
0.4102817342709612
 40
0.5001547244912793
 40
0.6608834640132546
 40
0.8271346607599365
 40
0.9999999999999999
 40
0.9999999999999999
 40
0.9999999999999999
 40
0.9999999999999999
 10
3.408751096006042
 20
-0.3375333415643194
 30
0.0
 10
3.409933926886333
 20
-0.3375473176708107
 30
0.0
 10
3.412329104322744
 20
-0.3375756186354494
 30
0.0
 10
3.415914817710993
 20
-0.3376297114573431
 30
0.0
 10
3.419491428789349
 20
-0.3376875829636417
 30
0.0
 10
3.423005858828221
 20
-0.3377466036153139
 30
0.0
 10
3.426396427133974
 20
-0.3378034639996837
 30
0.0
 10
3.430397525470771
 20
-0.337867805659446
 30
0.0
 10
3.434534206343618
 20
-0.3379372937075287
 30
0.0
 10
3.438144955036236
 20
-0.3380250570619817
 30
0.0
 10
3.439149810526657
 20
-0.3381222417016217
 30
0.0
 10
3.439662037642724
 20
-0.3381717817679928
 30
0.0
  0
SPLINE
  5
AF
330
1F
100
AcDbEntity
  8
0
  6
Continuous
 62
     7
370
    25
100
AcDbSpline
210
0.0
220
0.0
230
1.0
 70
     8
 71
     3
 72
     8
 73
     4
 74
     0
 42
0.000000001
 43
0.00000001
 40
0.0
 40
0.0
 40
0.0
 40
0.0
 40
1.0
 40
1.0
 40
1.0
 40
1.0
 10
3.40875149404186
 20
0.3375110902211217
 30
0.0
 10
3.408771156487067
 20
0.3325013188000766
 30
0.0
 10
3.408770869847642
 20
0.3274913767107186
 30
0.0
 10
3.408750636087263
 20
0.3224812814862892
 30
0.0
  0
SPLINE
  5
B2
330
1F
100
AcDbEntity
  8
0
  6
Continuous
 62
     7
370
    25
100
AcDbSpline
210
0.0
220
0.0
230
1.0
 70
     8
 71
     3
 72
     9
 73
     5
 74
     0
 42
0.000000001
 43
0.00000001
 40
0.0
 40
0.0
 40
0.0
 40
0.0
 40
0.5794511937230169
 40
1.0
 40
1.0
 40
1.0
 40
1.0
 10
3.439662037642724
 20
-0.3381717817679928
 30
0.0
 10
3.436713444544061
 20
-0.3351409897505996
 30
0.0
 10
3.431624848419654
 20
-0.3299105371253835
 30
0.0
 10
3.426474624038462
 20
-0.3247408167794804
 30
0.0
 10
3.424308703322892
 20
-0.3225666970592249
 30
0.0
  0
SPLINE
  5
BA
330
1F
100
AcDbEntity
  8
0
  6
Continuous
 62
     7
370
    25
100
AcDbSpline
210
0.0
220
0.0
230
1.0
 70
     8
 71
     3
 72
     8
 73
     4
 74
     0
 42
0.000000001
 43
0.00000001
 40
0.0
 40
0.0
 40
0.0
 40
0.0
 40
0.0005189949390821
 40
0.0005189949390821
 40
0.0005189949390821
 40
0.0005189949390821
 10
3.085657187084649
 20
-0.3374121117537088
 30
0.0
 10
3.082752133419053
 20
-0.3324481415634656
 30
0.0
 10
3.079845396692997
 20
-0.3274848106953615
 30
0.0
 10
3.076936977557294
 20
-0.3225221202606978
 30
0.0
  0
SPLINE
  5
BB
330
1F
100
AcDbEntity
  8
0
  6
Continuous
 62
     7
370
    25
100
AcDbSpline
210
0.0
220
0.0
230
1.0
 70
     8
 71
     3
 72
     8
 73
     4
 74
     0
 42
0.000000001
 43
0.00000001
 40
0.0
 40
0.0
 40
0.0
 40
0.0
 40
1.0
 40
1.0
 40
1.0
 40
1.0
 10
3.085657187084656
 20
-0.337412111753704
 30
0.0
 10
3.085843385243053
 20
-0.3375716405211644
 30
0.0
 10
3.086029583401451
 20
-0.3377311576550688
 30
0.0
 10
3.086215781559849
 20
-0.3378906631389175
 30
0.0
  0
SPLINE
  5
BC
330
1F
100
AcDbEntity
  8
0
  6
Continuous
 62
     7
370
    25
100
AcDbSpline
210
0.0
220
0.0
230
1.0
 70
     8
 71
     3
 72
     8
 73
     4
 74
     0
 42
0.000000001
 43
0.00000001
 40
0.0
 40
0.0
 40
0.0
 40
0.0
 40
1.0
 40
1.0
 40
1.0
 40
1.0
 10
3.002492517504745
 20
-0.3380507778556851
 30
0.0
 10
3.030511366423347
 20
-0.3379949298631856
 30
0.0
 10
3.058431777547358
 20
-0.3379582292694199
 30
0.0
 10
3.086215777144491
 20
-0.3378906704286574
 30
0.0
  0
SPLINE
  5
BE
330
1F
100
AcDbEntity
  8
0
  6
Continuous
 62
     7
370
    25
100
AcDbSpline
210
0.0
220
0.0
230
1.0
 70
     8
 71
     3
 72
     8
 73
     4
 74
     0
 42
0.000000001
 43
0.00000001
 40
0.0
 40
0.0
 40
0.0
 40
0.0
 40
0.0005290563329342
 40
0.0005290563329342
 40
0.0005290563329342
 40
0.0005290563329342
 10
3.001959763374252
 20
-0.33759103610814
 30
0.0
 10
2.999103626905312
 20
-0.33256005144975
 30
0.0
 10
2.996245709931211
 20
-0.3275297053999959
 30
0.0
 10
2.99338601313056
 20
-0.3224999991533465
 30
0.0
  0
SPLINE
  5
BF
330
1F
100
AcDbEntity
  8
0
  6
Continuous
 62
     7
370
    25
100
AcDbSpline
210
0.0
220
0.0
230
1.0
 70
     8
 71
     3
 72
     8
 73
     4
 74
     0
 42
0.000000001
 43
0.00000001
 40
0.0
 40
0.0
 40
0.0
 40
0.0
 40
1.0
 40
1.0
 40
1.0
 40
1.0
 10
3.25253155959624
 20
0.338019052437299
 30
0.0
 10
3.224502819022125
 20
0.3379762580828761
 30
0.0
 10
3.196586947108221
 20
0.3379334637901415
 30
0.0
 10
3.168784223148798
 20
0.3378906695590905
 30
0.0
  0
LWPOLYLINE
  5
C0
330
1F
100
AcDbEntity
  8
0
  6
Continuous
 62
     7
370
    25
100
AcDbPolyline
 90
        3
 70
   128
 43
0.0
 10
3.2529830339
 20
0.3375705242
 10
3.2527643151
 20
0.3378053918
 10
3.2525
 20
0.3379877278
  0
SPLINE
  5
C2
330
1F
100
AcDbEntity
  8
0
  6
Continuous
 62
     7
370
    25
100
AcDbSpline
210
0.0
220
0.0
230
1.0
 70
     8
 71
     3
 72
     8
 73
     4
 74
     0
 42
0.000000001
 43
0.00000001
 40
0.0
 40
0.0
 40
0.0
 40
0.0
 40
1.0
 40
1.0
 40
1.0
 40
1.0
 10
3.169342812915348
 20
0.3374121117537036
 30
0.0
 10
3.172239306277458
 20
0.3324508491283522
 30
0.0
 10
3.175137039074272
 20
0.3274904155882382
 30
0.0
 10
3.178036011117393
 20
0.3225308115016666
 30
0.0
  0
SPLINE
  5
C3
330
1F
100
AcDbEntity
  8
0
  6
Continuous
 62
     7
370
    25
100
AcDbSpline
210
0.0
220
0.0
230
1.0
 70
     8
 71
     3
 72
     8
 73
     4
 74
     0
 42
0.000000001
 43
0.00000001
 40
0.0
 40
0.0
 40
0.0
 40
0.0
 40
1.0
 40
1.0
 40
1.0
 40
1.0
 10
3.169342812915358
 20
0.3374121117537039
 30
0.0
 10
3.169156612266072
 20
0.3375716426552789
 30
0.0
 10
3.168970411616788
 20
0.3377311619229869
 30
0.0
 10
3.168784210967503
 20
0.3378906695403271
 30
0.0
  0
SPLINE
  5
D0
330
1F
100
AcDbEntity
  8
0
  6
Continuous
 62
     7
370
    25
100
AcDbSpline
210
0.0
220
0.0
230
1.0
 70
    24
 71
     3
 72
     8
 73
     4
 74
     0
 42
0.000000001
 43
0.00000001
 40
0.0000000000000349
 40
0.0000000000000349
 40
0.0000000000000349
 40
0.0000000000000349
 40
0.0007382327952432
 40
0.0007382327952432
 40
0.0007382327952432
 40
0.0007382327952432
 10
2.729999999994616
 20
-0.3525000000115373
 30
0.0
 10
2.734970628755388
 20
-0.3475293712507644
 30
0.0
 10
2.739961184032405
 20
-0.3425388159675959
 30
0.0
 10
2.744970887558653
 20
-0.3375291124413471
 30
0.0
  0
LWPOLYLINE
  5
D2
330
1F
100
AcDbEntity
  8
0
  6
Continuous
 62
     7
370
    25
100
AcDbPolyline
 90
       21
 70
   128
 43
0.0
 10
3.086215762
 20
-1.1050000486
 10
3.086215762
 20
-1.1044224075
 10
3.086215762
 20
-1.0998108472
 10
3.086215762
 20
-1.0906089574
 10
3.086215762
 20
-1.0768551445
 10
3.086215762
 20
-1.0586068135
 10
3.086215762
 20
-1.035940128
 10
3.086215762
 20
-1.0089496932
 10
3.086215762
 20
-0.9777481602
 10
3.086215762
 20
-0.9424657561
 10
3.086215762
 20
-0.9032497409
 10
3.086215762
 20
-0.860263792
 10
3.086215762
 20
-0.8136873219
 10
3.086215762
 20
-0.7637147288
 10
3.086215762
 20
-0.7105545855
 10
3.086215762
 20
-0.654428769
 10
3.086215762
 20
-0.595571534
 10
3.086215762
 20
-0.5342285357
 10
3.086215762
 20
-0.4706558039
 10
3.086215762
 20
-0.4051186751
 10
3.0862157755
 20
-0.337890677
  0
SPLINE
  5
D6
330
1F
100
AcDbEntity
  8
0
  6
Continuous
 62
     7
370
    25
100
AcDbSpline
210
0.0
220
0.0
230
1.0
 70
     8
 71
     3
 72
     8
 73
     4
 74
     0
 42
0.000000001
 43
0.00000001
 40
0.0
 40
0.0
 40
0.0
 40
0.0
 40
1.0
 40
1.0
 40
1.0
 40
1.0
 10
3.168784229638223
 20
-0.3379491856328888
 30
0.0
 10
3.196565481748341
 20
-0.3379796662483415
 30
0.0
 10
3.224483621403357
 20
-0.3379772504752495
 30
0.0
 10
3.252500911377834
 20
-0.3379953844914405
 30
0.0
  0
SPLINE
  5
DA
330
1F
100
AcDbEntity
  8
0
  6
Continuous
 62
     7
370
    25
100
AcDbSpline
210
0.0
220
0.0
230
1.0
 70
    24
 71
     3
 72
     8
 73
     4
 74
     0
 42
0.000000001
 43
0.00000001
 40
0.0
 40
0.0
 40
0.0
 40
0.0
 40
0.0007396623718816
 40
0.0007396623718816
 40
0.0007396623718816
 40
0.0007396623718816
 10
2.73
 20
0.3525000000000001
 30
0.0
 10
2.734980254293392
 20
0.347519745706608
 30
0.0
 10
2.739980512429229
 20
0.3425194875707712
 30
0.0
 10
2.744999991635484
 20
0.3375000083645163
 30
0.0
  0
SPLINE
  5
DE
330
1F
100
AcDbEntity
  8
0
  6
Continuous
 62
     7
370
    25
100
AcDbSpline
210
0.0
220
0.0
230
1.0
 70
     8
 71
     3
 72
     8
 73
     4
 74
     0
 42
0.000000001
 43
0.00000001
 40
0.0
 40
0.0
 40
0.0
 40
0.0
 40
1.0
 40
1.0
 40
1.0
 40
1.0
 10
3.439997511087451
 20
-0.338132431092765
 30
0.0
 10
3.434797878886406
 20
-0.3329138001863125
 30
0.0
 10
3.429584575856387
 20
-0.3277087903110246
 30
0.0
 10
3.424357676745284
 20
-0.3225174697788636
 30
0.0
  0
CIRCLE
  5
E4
330
1F
100
AcDbEntity
  8
0
  6
Continuous
 62
     7
370
    25
100
AcDbCircle
 10
3.1275
 20
0.0
 30
0.0
 40
0.2187500000000009
  0
SPLINE
  5
EB
330
1F
100
AcDbEntity
  8
0
  6
Continuous
 62
     7
370
    25
100
AcDbSpline
210
0.0
220
0.0
230
1.0
 70
    24
 71
     3
 72
    14
 73
    10
 74
     0
 42
0.000000001
 43
0.00000001
 40
0.0
 40
0.0
 40
0.0
 40
0.0
 40
0.2500000000000001
 40
0.2500000000000001
 40
0.5000000000000001
 40
0.5000000000000001
 40
0.7500000000000002
 40
0.7500000000000002
 40
1.0
 40
1.0
 40
1.0
 40
1.0
 10
0.0
 20
0.4162054582456551
 30
0.0
 10
0.0
 20
0.4162054582456523
 30
0.0
 10
0.0
 20
0.3723531572402351
 30
0.0
 10
0.0
 20
0.2162502465432136
 30
0.0
 10
0.0
 20
0.1103814267148052
 30
0.0
 10
0.0
 20
-0.1103814267183641
 30
0.0
 10
0.0
 20
-0.2162502465463975
 30
0.0
 10
0.0
 20
-0.3723531572420842
 30
0.0
 10
0.0
 20
-0.4162054582465962
 30
0.0
 10
0.0
 20
-0.4162054582456551
 30
0.0
  0
SPLINE
  5
EC
330
1F
100
AcDbEntity
  8
0
  6
Continuous
 62
     7
370
    25
100
AcDbSpline
210
0.0
220
0.0
230
1.0
 70
    24
 71
     3
 72
     8
 73
     4
 74
     0
 42
0.000000001
 43
0.00000001
 40
0.0
 40
0.0
 40
0.0
 40
0.0
 40
1.0
 40
1.0
 40
1.0
 40
1.0
 10
5.690002668130018
 20
-0.133507977434333
 30
0.0
 10
5.690002668130018
 20
-0.0469237298584476
 30
0.0
 10
5.690002668130018
 20
0.0469247195095774
 30
0.0
 10
5.690002668130018
 20
0.133508898496163
 30
0.0
  0
SPLINE
  5
ED
330
1F
100
AcDbEntity
  8
0
  6
Continuous
 62
     7
370
    25
100
AcDbSpline
210
0.0
220
0.0
230
1.0
 70
     8
 71
     3
 72
    16
 73
    12
 74
     0
 42
0.000000001
 43
0.00000001
 40
0.0
 40
0.0
 40
0.0
 40
0.0
 40
0.0803166858863787
 40
0.1618513955246574
 40
0.2446509248464109
 40
0.3287590796398739
 40
0.4142163679488999
 40
0.5010597693900828
 40
0.6408011349206763
 40
0.8071313508357572
 40
1.0
 40
1.0
 40
1.0
 40
1.0
 10
5.670002668130017
 20
-0.1436982588520213
 30
0.0
 10
5.670850760426839
 20
-0.1436821700339207
 30
0.0
 10
5.672559806564135
 20
-0.1436497484065443
 30
0.0
 10
5.675099599767832
 20
-0.1433872533703413
 30
0.0
 10
5.677589314233172
 20
-0.1429664600743074
 30
0.0
 10
5.679981918587941
 20
-0.1423725929149232
 30
0.0
 10
5.682228041941368
 20
-0.1416126526198079
 30
0.0
 10
5.684687409008041
 20
-0.1405124441596104
 30
0.0
 10
5.687236022028134
 20
-0.1388500001216417
 30
0.0
 10
5.689506836224663
 20
-0.1364236858564291
 30
0.0
 10
5.689829445784324
 20
-0.1345266005741079
 30
0.0
 10
5.690002668130018
 20
-0.133507977434333
 30
0.0
  0
SPLINE
  5
EF
330
1F
100
AcDbEntity
  8
0
  6
Continuous
 62
     7
370
    25
100
AcDbSpline
210
0.0
220
0.0
230
1.0
 70
     8
 71
     3
 72
    17
 73
    13
 74
     0
 42
0.000000001
 43
0.00000001
 40
0.0
 40
0.0
 40
0.0
 40
0.0
 40
0.0861804903656458
 40
0.1674936039789675
 40
0.2439363335025578
 40
0.3155070545225547
 40
0.3822059126907857
 40
0.4440352429834538
 40
0.5010000819450318
 40
0.6723811470195925
 40
0.8386025485919139
 40
1.0
 40
1.0
 40
1.0
 40
1.0
 10
5.690002668130018
 20
0.1335088984961631
 30
0.0
 10
5.689968280829642
 20
0.1339634491039861
 30
0.0
 10
5.689901448384774
 20
0.1348468778147311
 30
0.0
 10
5.689386293116915
 20
0.136108276759933
 30
0.0
 10
5.688640901980304
 20
0.1372591591980443
 30
0.0
 10
5.68769733189042
 20
0.138292641377193
 30
0.0
 10
5.686619718235322
 20
0.1392062012775839
 30
0.0
 10
5.685457479337169
 20
0.140000480393122
 30
0.0
 10
5.683420546185051
 20
0.1411500959867724
 30
0.0
 10
5.680095815378785
 20
0.1424361674716745
 30
0.0
 10
5.67517765086895
 20
0.1435003828605436
 30
0.0
 10
5.67171064599834
 20
0.143633564879187
 30
0.0
 10
5.670002668130017
 20
0.1436991753841592
 30
0.0
  0
SPLINE
  5
F0
330
1F
100
AcDbEntity
  8
0
  6
Continuous
 62
     7
370
    25
100
AcDbSpline
210
0.0
220
0.0
230
1.0
 70
    24
 71
     3
 72
    34
 73
    30
 74
     0
 42
0.000000001
 43
0.00000001
 40
0.0
 40
0.0
 40
0.0
 40
0.0
 40
0.0097313178326787
 40
0.0194453913207941
 40
0.0291512657091744
 40
0.038858009163709
 40
0.048574687417099
 40
0.0583103384485541
 40
0.0891986427462139
 40
0.12010239238432
 40
0.1522783912392624
 40
0.1844698980988729
 40
0.2501190894507639
 40
0.315768280802655
 40
0.3800532528149334
 40
0.4417723197201607
 40
0.5000033694634829
 40
0.5582344192068048
 40
0.6199534861120323
 40
0.6842384581243106
 40
0.7498876494762016
 40
0.8155368408280926
 40
0.8477128409308382
 40
0.8799043490394429
 40
0.9107926521752621
 40
0.9416964012226411
 40
0.9611360772317615
 40
0.9805464271462578
 40
1.0
 40
1.0
 40
1.0
 40
1.0
 10
5.019002668130016
 20
-0.426
 30
0.0
 10
5.019002668130016
 20
-0.4259620649691189
 30
0.0
 10
5.019002668130016
 20
-0.4258862621299833
 30
0.0
 10
5.019002668130015
 20
-0.4252713144684116
 30
0.0
 10
5.019002668130016
 20
-0.4242891122252301
 30
0.0
 10
5.019002668130017
 20
-0.4229039238907629
 30
0.0
 10
5.019002668130016
 20
-0.4211251173930091
 30
0.0
 10
5.019002668130016
 20
-0.4173789215167856
 30
0.0
 10
5.019002668130016
 20
-0.4100648821613721
 30
0.0
 10
5.019002668130017
 20
-0.3965247784172048
 30
0.0
 10
5.019002668130015
 20
-0.378906285250621
 30
0.0
 10
5.019002668130017
 20
-0.3496439254102279
 30
0.0
 10
5.019002668130015
 20
-0.3033698592612304
 30
0.0
 10
5.019002668130017
 20
-0.2352468967236968
 30
0.0
 10
5.019002668130016
 20
-0.158899103362178
 30
0.0
 10
5.019002668130015
 20
-0.079503687042926
 30
0.0
 10
5.019002668130017
 20
-0.0000000001203286
 30
0.0
 10
5.019002668130014
 20
0.0795036875386552
 30
0.0
 10
5.019002668130017
 20
0.1588991014824749
 30
0.0
 10
5.019002668130016
 20
0.2352469040797465
 30
0.0
 10
5.019002668130015
 20
0.3033698312110331
 30
0.0
 10
5.019002668130017
 20
0.3496396184413452
 30
0.0
 10
5.019002668130017
 20
0.3789029523423906
 30
0.0
 10
5.019002668130015
 20
0.3965203225451987
 30
0.0
 10
5.019002668130015
 20
0.4100606701486475
 30
0.0
 10
5.019002668130016
 20
0.4183772723326342
 30
0.0
 10
5.019002668130015
 20
0.4230813284758764
 30
0.0
 10
5.019002668130017
 20
0.4255446553229601
 30
0.0
 10
5.019002668130017
 20
0.4258481059456707
 30
0.0
 10
5.019002668130016
 20
0.426
 30
0.0
  0
SPLINE
  5
F2
330
1F
100
AcDbEntity
  8
0
  6
Continuous
 62
     7
370
    25
100
AcDbSpline
210
0.0
220
0.0
230
1.0
 70
     8
 71
     3
 72
     8
 73
     4
 74
     0
 42
0.000000001
 43
0.00000001
 40
0.0
 40
0.0
 40
0.0
 40
0.0
 40
1.0
 40
1.0
 40
1.0
 40
1.0
 10
5.553576759243072
 20
0.4291261675673189
 30
0.0
 10
5.566955099057681
 20
0.4288704105696311
 30
0.0
 10
5.580333438872289
 20
0.4286075731930571
 30
0.0
 10
5.593711778686898
 20
0.4283376684473739
 30
0.0
  0
SPLINE
  5
F3
330
1F
100
AcDbEntity
  8
0
  6
Continuous
 62
     7
370
    25
100
AcDbSpline
210
0.0
220
0.0
230
1.0
 70
     8
 71
     3
 72
     9
 73
     5
 74
     0
 42
0.000000001
 43
0.00000001
 40
0.0
 40
0.0
 40
0.0
 40
0.0
 40
0.2104839923573724
 40
1.0
 40
1.0
 40
1.0
 40
1.0
 10
5.48426279350245
 20
0.4330879680442
 30
0.0
 10
5.487110305204079
 20
0.432856260672132
 30
0.0
 10
5.500638705486393
 20
0.43175542934775
 30
0.0
 10
5.516699962554998
 20
0.4308426412313338
 30
0.0
 10
5.529380582113522
 20
0.4301219804018372
 30
0.0
  0
SPLINE
  5
F5
330
1F
100
AcDbEntity
  8
0
  6
Continuous
 62
     7
370
    25
100
AcDbSpline
210
0.0
220
0.0
230
1.0
 70
     8
 71
     3
 72
    13
 73
     9
 74
     0
 42
0.000000001
 43
0.00000001
 40
0.0
 40
0.0
 40
0.0
 40
0.0
 40
0.1794373432696982
 40
0.3460657503403236
 40
0.5003636447872807
 40
0.6736370668734599
 40
0.8397355038745193
 40
1.0
 40
1.0
 40
1.0
 40
1.0
 10
5.487273290037835
 20
0.4328044715335319
 30
0.0
 10
5.485328494384701
 20
0.4329864203964665
 30
0.0
 10
5.481577730164188
 20
0.4333373299040841
 30
0.0
 10
5.476422119987968
 20
0.4338215174884729
 30
0.0
 10
5.471584538493897
 20
0.4342807951490953
 30
0.0
 10
5.46713227981152
 20
0.4347120632735168
 30
0.0
 10
5.463047147382229
 20
0.4351133230541909
 30
0.0
 10
5.460840776143074
 20
0.4353295068276963
 30
0.0
 10
5.459757310654143
 20
0.4354356665045916
 30
0.0
  0
SPLINE
  5
F6
330
1F
100
AcDbEntity
  8
0
  6
Continuous
 62
     7
370
    25
100
AcDbSpline
210
0.0
220
0.0
230
1.0
 70
     8
 71
     3
 72
    15
 73
    11
 74
     0
 42
0.000000001
 43
0.00000001
 40
0.0
 40
0.0
 40
0.0
 40
0.0
 40
0.1305257212303346
 40
0.2571845887322894
 40
0.3801707557042738
 40
0.4996962734593922
 40
0.633214261845079
 40
0.7497100087236488
 40
0.8792498114902092
 40
1.0
 40
1.0
 40
1.0
 40
1.0
 10
5.571834801660631
 20
0.4286139173665562
 30
0.0
 10
5.567967284968629
 20
0.4287120171362084
 30
0.0
 10
5.560346827632927
 20
0.428905310447863
 30
0.0
 10
5.549166640908138
 20
0.4292780224517906
 30
0.0
 10
5.53839482233179
 20
0.4296996185179063
 30
0.0
 10
5.527545290728463
 20
0.4301950889228511
 30
0.0
 10
5.517015115166065
 20
0.4307343837593056
 30
0.0
 10
5.506427543905814
 20
0.4313518068383858
 30
0.0
 10
5.496505417882473
 20
0.432030519239496
 30
0.0
 10
5.49027776566694
 20
0.43255259885102
 30
0.0
 10
5.487273290037835
 20
0.4328044715335319
 30
0.0
  0
SPLINE
  5
FB
330
1F
100
AcDbEntity
  8
0
  6
Continuous
 62
     7
370
    25
100
AcDbSpline
210
0.0
220
0.0
230
1.0
 70
     8
 71
     3
 72
     8
 73
     4
 74
     0
 42
0.000000001
 43
0.00000001
 40
0.0
 40
0.0
 40
0.0
 40
0.0
 40
1.0
 40
1.0
 40
1.0
 40
1.0
 10
5.553576759243072
 20
0.281346683804466
 30
0.0
 10
5.566955099057681
 20
0.2824513536432239
 30
0.0
 10
5.580333438872289
 20
0.2835513813945039
 30
0.0
 10
5.593711778686898
 20
0.2846467126097499
 30
0.0
  0
SPLINE
  5
FC
330
1F
100
AcDbEntity
  8
0
  6
Continuous
 62
     7
370
    25
100
AcDbSpline
210
0.0
220
0.0
230
1.0
 70
     8
 71
     3
 72
     8
 73
     4
 74
     0
 42
0.000000001
 43
0.00000001
 40
0.0
 40
0.0
 40
0.0
 40
0.0
 40
1.0
 40
1.0
 40
1.0
 40
1.0
 10
5.533832422210009
 20
0.2781499284306167
 30
0.0
 10
5.540413860966072
 20
0.279219764844702
 30
0.0
 10
5.546995299722135
 20
0.2802853650817125
 30
0.0
 10
5.553576738478197
 20
0.2813466804559458
 30
0.0
  0
SPLINE
  5
FD
330
1F
100
AcDbEntity
  8
0
  6
Continuous
 62
     7
370
    25
100
AcDbSpline
210
0.0
220
0.0
230
1.0
 70
     8
 71
     3
 72
    17
 73
    13
 74
     0
 42
0.000000001
 43
0.00000001
 40
0.0
 40
0.0
 40
0.0
 40
0.0
 40
0.0369918757425674
 40
0.0755125147215586
 40
0.1158899497585805
 40
0.1584092603063173
 40
0.2033147516771362
 40
0.2508139244868599
 40
0.3689051429214786
 40
0.5010211342351881
 40
0.7348805008642687
 40
0.9999999999999999
 40
0.9999999999999999
 40
0.9999999999999999
 40
0.9999999999999999
 10
5.46144372791638
 20
0.2397250908831399
 30
0.0
 10
5.461865267291624
 20
0.2405726088789067
 30
0.0
 10
5.462725766999735
 20
0.2423026702463674
 30
0.0
 10
5.464434446411659
 20
0.2447891731377567
 30
0.0
 10
5.466468624158894
 20
0.247252014142804
 30
0.0
 10
5.468859975811154
 20
0.2496802021050373
 30
0.0
 10
5.471598816838616
 20
0.2520777933350494
 30
0.0
 10
5.476155803119399
 20
0.2555688529908589
 30
0.0
 10
5.483169992659447
 20
0.2599510137243291
 30
0.0
 10
5.495419519724637
 20
0.2659926127640583
 30
0.0
 10
5.512351471106345
 20
0.2724380575727413
 30
0.0
 10
5.526379168467863
 20
0.2761680784352107
 30
0.0
 10
5.533832422210009
 20
0.2781499284306167
 30
0.0
  0
SPLINE
  5
FE
330
1F
100
AcDbEntity
  8
0
  6
Continuous
 62
     7
370
    25
100
AcDbSpline
210
0.0
220
0.0
230
1.0
 70
     8
 71
     3
 72
     8
 73
     4
 74
     0
 42
0.000000001
 43
0.00000001
 40
0.0
 40
0.0
 40
0.0
 40
0.0
 40
1.0
 40
1.0
 40
1.0
 40
1.0
 10
5.459750416250236
 20
0.2371827628119706
 30
0.0
 10
5.460314853472283
 20
0.2380321300518335
 30
0.0
 10
5.460879290694332
 20
0.2388795795940432
 30
0.0
 10
5.46144372791638
 20
0.2397250908831399
 30
0.0
  0
SPLINE
  5
FF
330
1F
100
AcDbEntity
  8
0
  6
Continuous
 62
     7
370
    25
100
AcDbSpline
210
0.0
220
0.0
230
1.0
 70
     8
 71
     3
 72
    11
 73
     7
 74
     0
 42
0.000000001
 43
0.00000001
 40
0.0
 40
0.0
 40
0.0
 40
0.0
 40
0.2500137136041943
 40
0.4999976251314547
 40
0.7499827242033833
 40
1.0
 40
1.0
 40
1.0
 40
1.0
 10
5.459757310654143
 20
0.1985127492437097
 30
0.0
 10
5.459827805008922
 20
0.2018153404759184
 30
0.0
 10
5.459968785315429
 20
0.2084201292656186
 30
0.0
 10
5.460020378256624
 20
0.2181544727701715
 30
0.0
 10
5.459965337083773
 20
0.2277660560714047
 30
0.0
 10
5.459822059601533
 20
0.234043725902519
 30
0.0
 10
5.459750416250236
 20
0.2371827628119706
 30
0.0
  0
SPLINE
  5
100
330
1F
100
AcDbEntity
  8
0
  6
Continuous
 62
     7
370
    25
100
AcDbSpline
210
0.0
220
0.0
230
1.0
 70
     8
 71
     3
 72
    13
 73
     9
 74
     0
 42
0.000000001
 43
0.00000001
 40
0.0
 40
0.0
 40
0.0
 40
0.0
 40
0.1794373432683899
 40
0.3460657503389884
 40
0.5003636447872016
 40
0.6736370668724643
 40
0.8397355038735332
 40
1.0
 40
1.0
 40
1.0
 40
1.0
 10
5.487273290037828
 20
0.170770919048582
 30
0.0
 10
5.485328494384711
 20
0.1721886893955906
 30
0.0
 10
5.481577730164215
 20
0.1749230241221812
 30
0.0
 10
5.476422119987998
 20
0.1791473360370354
 30
0.0
 10
5.471584538493921
 20
0.1835462508988462
 30
0.0
 10
5.467132279811531
 20
0.1882366669326823
 30
0.0
 10
5.463047147382242
 20
0.1932685198549034
 30
0.0
 10
5.460840776143081
 20
0.1967856296239688
 30
0.0
 10
5.459757310654143
 20
0.1985127492437097
 30
0.0
  0
SPLINE
  5
101
330
1F
100
AcDbEntity
  8
0
  6
Continuous
 62
     7
370
    25
100
AcDbSpline
210
0.0
220
0.0
230
1.0
 70
     8
 71
     3
 72
    15
 73
    11
 74
     0
 42
0.000000001
 43
0.00000001
 40
0.0
 40
0.0
 40
0.0
 40
0.0
 40
0.130525721189576
 40
0.2571845886779697
 40
0.3801707556634555
 40
0.4996962734589261
 40
0.6332142617424477
 40
0.7497100087231389
 40
0.8792498114500522
 40
1.0
 40
1.0
 40
1.0
 40
1.0
 10
5.571834801660631
 20
0.145100149915851
 30
0.0
 10
5.56796728496984
 20
0.1456071171687903
 30
0.0
 10
5.560346827635754
 20
0.1466060326563442
 30
0.0
 10
5.549166640912177
 20
0.1485819397240119
 30
0.0
 10
5.538394822334674
 20
0.1508775448763509
 30
0.0
 10
5.527545290732513
 20
0.1536676197184989
 30
0.0
 10
5.517015115168959
 20
0.1568292776206482
 30
0.0
 10
5.506427543909751
 20
0.1606534728589233
 30
0.0
 10
5.496505417883205
 20
0.1650731580477452
 30
0.0
 10
5.490277765667845
 20
0.1689166570236856
 30
0.0
 10
5.487273290037828
 20
0.170770919048582
 30
0.0
  0
SPLINE
  5
105
330
1F
100
AcDbEntity
  8
0
  6
Continuous
 62
     7
370
    25
100
AcDbSpline
210
0.0
220
0.0
230
1.0
 70
     8
 71
     3
 72
     8
 73
     4
 74
     0
 42
0.000000001
 43
0.00000001
 40
0.0
 40
0.0
 40
0.0
 40
0.0
 40
1.0
 40
1.0
 40
1.0
 40
1.0
 10
5.553576759243072
 20
-0.1477794837628521
 30
0.0
 10
5.566955099057681
 20
-0.1464190569264064
 30
0.0
 10
5.580333438872289
 20
-0.1450561917985524
 30
0.0
 10
5.593711778686898
 20
-0.1436909558376231
 30
0.0
  0
SPLINE
  5
106
330
1F
100
AcDbEntity
  8
0
  6
Continuous
 62
     7
370
    25
100
AcDbSpline
210
0.0
220
0.0
230
1.0
 70
     8
 71
     3
 72
     8
 73
     4
 74
     0
 42
0.000000001
 43
0.00000001
 40
0.0
 40
0.0
 40
0.0
 40
0.0
 40
1.0
 40
1.0
 40
1.0
 40
1.0
 10
5.533832422210009
 20
-0.1516937806413768
 30
0.0
 10
5.540413860966072
 20
-0.1503913067893222
 30
0.0
 10
5.546995299722135
 20
-0.1490865226665206
 30
0.0
 10
5.553576738478197
 20
-0.1477794878866334
 30
0.0
  0
SPLINE
  5
107
330
1F
100
AcDbEntity
  8
0
  6
Continuous
 62
     7
370
    25
100
AcDbSpline
210
0.0
220
0.0
230
1.0
 70
     8
 71
     3
 72
    17
 73
    13
 74
     0
 42
0.000000001
 43
0.00000001
 40
0.0
 40
0.0
 40
0.0
 40
0.0
 40
0.036991875741782
 40
0.0755125147203038
 40
0.1158899497571695
 40
0.1584092603050609
 40
0.2033147516763062
 40
0.2508139244867347
 40
0.3689051428726513
 40
0.5010211342345063
 40
0.7348805007887079
 40
1.0
 40
1.0
 40
1.0
 40
1.0
 10
5.461443727916381
 20
-0.1955275473020082
 30
0.0
 10
5.461865267291619
 20
-0.1946184585015267
 30
0.0
 10
5.462725766999717
 20
-0.1927627109880021
 30
0.0
 10
5.464434446411625
 20
-0.1900677707606208
 30
0.0
 10
5.466468624158857
 20
-0.1873789645141404
 30
0.0
 10
5.468859975811119
 20
-0.1847063282182103
 30
0.0
 10
5.471598816838605
 20
-0.1820466893526446
 30
0.0
 10
5.476155803118264
 20
-0.1781435280306767
 30
0.0
 10
5.483169992658703
 20
-0.1731766293236363
 30
0.0
 10
5.49541951972127
 20
-0.1662101024281026
 30
0.0
 10
5.512351471103932
 20
-0.1586124671353223
 30
0.0
 10
5.526379168465645
 20
-0.1540943599156572
 30
0.0
 10
5.533832422210009
 20
-0.1516937806413768
 30
0.0
  0
SPLINE
  5
108
330
1F
100
AcDbEntity
  8
0
  6
Continuous
 62
     7
370
    25
100
AcDbSpline
210
0.0
220
0.0
230
1.0
 70
     8
 71
     3
 72
     8
 73
     4
 74
     0
 42
0.000000001
 43
0.00000001
 40
0.0
 40
0.0
 40
0.0
 40
0.0
 40
1.0
 40
1.0
 40
1.0
 40
1.0
 10
5.459750416250236
 20
-0.1982370465619989
 30
0.0
 10
5.460314853472283
 20
-0.197335475648796
 30
0.0
 10
5.460879290694332
 20
-0.1964323019264367
 30
0.0
 10
5.46144372791638
 20
-0.1955275473020082
 30
0.0
  0
SPLINE
  5
109
330
1F
100
AcDbEntity
  8
0
  6
Continuous
 62
     7
370
    25
100
AcDbSpline
210
0.0
220
0.0
230
1.0
 70
     8
 71
     3
 72
    11
 73
     7
 74
     0
 42
0.000000001
 43
0.00000001
 40
0.0
 40
0.0
 40
0.0
 40
0.0
 40
0.2500137136042062
 40
0.4999976251314692
 40
0.7499827242033938
 40
0.9999999999999999
 40
0.9999999999999999
 40
0.9999999999999999
 40
0.9999999999999999
 10
5.459757310654143
 20
-0.2369229172608784
 30
0.0
 10
5.459827805008921
 20
-0.2337824854176148
 30
0.0
 10
5.459968785315424
 20
-0.2275019960761189
 30
0.0
 10
5.460020378256615
 20
-0.217886403556664
 30
0.0
 10
5.459965337083768
 20
-0.2081481383371038
 30
0.0
 10
5.459822059601531
 20
-0.2015408855528632
 30
0.0
 10
5.459750416250236
 20
-0.1982370465619989
 30
0.0
  0
SPLINE
  5
10A
330
1F
100
AcDbEntity
  8
0
  6
Continuous
 62
     7
370
    25
100
AcDbSpline
210
0.0
220
0.0
230
1.0
 70
     8
 71
     3
 72
    13
 73
     9
 74
     0
 42
0.000000001
 43
0.00000001
 40
0.0
 40
0.0
 40
0.0
 40
0.0
 40
0.1794373432577437
 40
0.3460657503283329
 40
0.5003636447870722
 40
0.6736370668648185
 40
0.8397355038658786
 40
1.0
 40
1.0
 40
1.0
 40
1.0
 10
5.48727329003782
 20
-0.26203355248495
 30
0.0
 10
5.48532849438482
 20
-0.2607977310009462
 30
0.0
 10
5.481577730164441
 20
-0.2584143057820423
 30
0.0
 10
5.476422119988245
 20
-0.2546741814515651
 30
0.0
 10
5.471584538494086
 20
-0.2507345442503975
 30
0.0
 10
5.467132279811594
 20
-0.2464753963410062
 30
0.0
 10
5.463047147382327
 20
-0.2418448031994458
 30
0.0
 10
5.460840776143127
 20
-0.2385438772038034
 30
0.0
 10
5.459757310654143
 20
-0.2369229172608784
 30
0.0
  0
SPLINE
  5
10B
330
1F
100
AcDbEntity
  8
0
  6
Continuous
 62
     7
370
    25
100
AcDbSpline
210
0.0
220
0.0
230
1.0
 70
     8
 71
     3
 72
    15
 73
    11
 74
     0
 42
0.000000001
 43
0.00000001
 40
0.0
 40
0.0
 40
0.0
 40
0.0
 40
0.1305257212074107
 40
0.2571845887017243
 40
0.3801707556812581
 40
0.4996962734590012
 40
0.6332142617616731
 40
0.7497100087231181
 40
0.8792498114500316
 40
1.0
 40
1.0
 40
1.0
 40
1.0
 10
5.571834801660631
 20
-0.2835137674507051
 30
0.0
 10
5.567967284969311
 20
-0.2831048999673433
 30
0.0
 10
5.560346827634514
 20
-0.2822992777913525
 30
0.0
 10
5.549166640910405
 20
-0.2806960827275543
 30
0.0
 10
5.538394822333414
 20
-0.2788220736414724
 30
0.0
 10
5.527545290731462
 20
-0.2765274692038687
 30
0.0
 10
5.517015115168475
 20
-0.2739051061382277
 30
0.0
 10
5.506427543909211
 20
-0.2706983339790694
 30
0.0
 10
5.496505417883206
 20
-0.2669573611915844
 30
0.0
 10
5.49027776566784
 20
-0.2636359418272243
 30
0.0
 10
5.487273290037822
 20
-0.26203355248495
 30
0.0
  0
SPLINE
  5
110
330
1F
100
AcDbEntity
  8
0
  6
Continuous
 62
     7
370
    25
100
AcDbSpline
210
0.0
220
0.0
230
1.0
 70
     8
 71
     3
 72
     8
 73
     4
 74
     0
 42
0.000000001
 43
0.00000001
 40
0.0
 40
0.0
 40
0.0
 40
0.0
 40
1.0
 40
1.0
 40
1.0
 40
1.0
 10
5.553576759243072
 20
-0.429126167567319
 30
0.0
 10
5.566955099057681
 20
-0.4288704105696312
 30
0.0
 10
5.580333438872289
 20
-0.4286075731930573
 30
0.0
 10
5.593711778686898
 20
-0.4283376684473741
 30
0.0
  0
SPLINE
  5
111
330
1F
100
AcDbEntity
  8
0
  6
Continuous
 62
     7
370
    25
100
AcDbSpline
210
0.0
220
0.0
230
1.0
 70
     8
 71
     3
 72
     8
 73
     4
 74
     0
 42
0.000000001
 43
0.00000001
 40
0.0
 40
0.0
 40
0.0
 40
0.0
 40
1.0
 40
1.0
 40
1.0
 40
1.0
 10
5.533832422210009
 20
-0.4298437090719937
 30
0.0
 10
5.540413860966072
 20
-0.4296110716340247
 30
0.0
 10
5.546995299722136
 20
-0.4293718877482338
 30
0.0
 10
5.553576738478198
 20
-0.42912616834258
 30
0.0
  0
SPLINE
  5
112
330
1F
100
AcDbEntity
  8
0
  6
Continuous
 62
     7
370
    25
100
AcDbSpline
210
0.0
220
0.0
230
1.0
 70
     8
 71
     3
 72
    17
 73
    13
 74
     0
 42
0.000000001
 43
0.00000001
 40
0.0
 40
0.0
 40
0.0
 40
0.0
 40
0.0369918757401153
 40
0.0755125147176484
 40
0.115889949754199
 40
0.1584092603024342
 40
0.2033147516746386
 40
0.2508139244866106
 40
0.3689051429529155
 40
0.501021134235567
 40
0.7348805009278382
 40
1.0
 40
1.0
 40
1.0
 40
1.0
 10
5.46144372791638
 20
-0.4352526381851481
 30
0.0
 10
5.461865267291601
 20
-0.435191067380418
 30
0.0
 10
5.462725766999672
 20
-0.4350653812343294
 30
0.0
 10
5.464434446411556
 20
-0.4348569438983125
 30
0.0
 10
5.466468624158775
 20
-0.4346309786568717
 30
0.0
 10
5.468859975811052
 20
-0.4343865303231876
 30
0.0
 10
5.471598816838557
 20
-0.4341244826876487
 30
0.0
 10
5.476155803120029
 20
-0.4337123810206388
 30
0.0
 10
5.483169992659784
 20
-0.433127643046496
 30
0.0
 10
5.495419519727246
 20
-0.4322027151905751
 30
0.0
 10
5.512351471108365
 20
-0.4310505247080103
 30
0.0
 10
5.526379168469727
 20
-0.4302624383503394
 30
0.0
 10
5.533832422210009
 20
-0.4298437090719937
 30
0.0
  0
SPLINE
  5
113
330
1F
100
AcDbEntity
  8
0
  6
Continuous
 62
     7
370
    25
100
AcDbSpline
210
0.0
220
0.0
230
1.0
 70
     8
 71
     3
 72
     8
 73
     4
 74
     0
 42
0.000000001
 43
0.00000001
 40
0.0
 40
0.0
 40
0.0
 40
0.0
 40
1.0
 40
1.0
 40
1.0
 40
1.0
 10
5.459750416250253
 20
-0.4354198093739622
 30
0.0
 10
5.460314853472296
 20
-0.4353676057006246
 30
0.0
 10
5.460879290694337
 20
-0.4353118815204773
 30
0.0
 10
5.46144372791638
 20
-0.4352526381851481
 30
0.0
  0
SPLINE
  5
115
330
1F
100
AcDbEntity
  8
0
  6
Continuous
 62
     7
370
    25
100
AcDbSpline
210
0.0
220
0.0
230
1.0
 70
     8
 71
     3
 72
     9
 73
     5
 74
     0
 42
0.000000001
 43
0.00000001
 40
0.0
 40
0.0
 40
0.0
 40
0.0
 40
0.5040145279229646
 40
1.0
 40
1.0
 40
1.0
 40
1.0
 10
5.554698972974434
 20
-0.4291041203738249
 30
0.0
 10
5.550403335757832
 20
-0.4292504583294877
 30
0.0
 10
5.541880491715407
 20
-0.4295408030468629
 30
0.0
 10
5.533524856025662
 20
-0.4299292943563165
 30
0.0
 10
5.529380582113581
 20
-0.4301219804018337
 30
0.0
  0
SPLINE
  5
11C
330
1F
100
AcDbEntity
  8
0
  6
Continuous
 62
     7
370
    25
100
AcDbSpline
210
0.0
220
0.0
230
1.0
 70
    24
 71
     3
 72
     9
 73
     5
 74
     0
 42
0.000000001
 43
0.00000001
 40
0.0
 40
0.0
 40
0.0
 40
0.0
 40
0.5675454606706974
 40
1.0
 40
1.0
 40
1.0
 40
1.0
 10
5.690002668130017
 20
0.190038369891441
 30
0.0
 10
5.690002668130017
 20
0.1776143566761274
 30
0.0
 10
5.690002668130018
 20
0.1557235759787864
 30
0.0
 10
5.690002668130017
 20
0.1402148125698936
 30
0.0
 10
5.690002668130017
 20
0.1335079774343337
 30
0.0
  0
SPLINE
  5
11E
330
1F
100
AcDbEntity
  8
0
  6
Continuous
 62
     7
370
    25
100
AcDbSpline
210
0.0
220
0.0
230
1.0
 70
    24
 71
     3
 72
    16
 73
    12
 74
     0
 42
0.000000001
 43
0.00000001
 40
0.0
 40
0.0
 40
0.0
 40
0.0
 40
0.0835323935194822
 40
0.1666066426505396
 40
0.2494436611400508
 40
0.3322662610613388
 40
0.4152973705634954
 40
0.4987582469939767
 40
0.6653781023420225
 40
0.8318731412568501
 40
1.0
 40
1.0
 40
1.0
 40
1.0
 10
5.690002668130017
 20
-0.145840826310308
 30
0.0
 10
5.690002668130018
 20
-0.14753442314828
 30
0.0
 10
5.690002668130017
 20
-0.1509123280698272
 30
0.0
 10
5.690002668130016
 20
-0.1562413854923115
 30
0.0
 10
5.690002668130018
 20
-0.1617387210983382
 30
0.0
 10
5.690002668130017
 20
-0.1674242188238217
 30
0.0
 10
5.690002668130016
 20
-0.1732927542307236
 30
0.0
 10
5.690002668130018
 20
-0.1813367075386416
 30
0.0
 10
5.690002668130018
 20
-0.1917429849285049
 30
0.0
 10
5.69000266813002
 20
-0.2046739494476909
 30
0.0
 10
5.690002668130018
 20
-0.213518241841835
 30
0.0
 10
5.690002668130017
 20
-0.2179619531124981
 30
0.0
  0
SPLINE
  5
120
330
1F
100
AcDbEntity
  8
0
  6
Continuous
 62
     7
370
    25
100
AcDbSpline
210
0.0
220
0.0
230
1.0
 70
    24
 71
     3
 72
    15
 73
    11
 74
     0
 42
0.000000001
 43
0.00000001
 40
0.0
 40
0.0
 40
0.0
 40
0.0
 40
0.1030864090274636
 40
0.204709044453172
 40
0.3054339595667397
 40
0.4058423915208581
 40
0.5065210589703929
 40
0.6724206149358161
 40
0.835943018776709
 40
1.0
 40
1.0
 40
1.0
 40
1.0
 10
5.690002668130017
 20
0.244199878482978
 30
0.0
 10
5.690002668130017
 20
0.2423964528660309
 30
0.0
 10
5.690002668130018
 20
0.2388152093415887
 30
0.0
 10
5.690002668130016
 20
0.2333179756521781
 30
0.0
 10
5.690002668130018
 20
0.2277913058550715
 30
0.0
 10
5.690002668130016
 20
0.2222232179200017
 30
0.0
 10
5.690002668130019
 20
0.2154251433025599
 30
0.0
 10
5.690002668130017
 20
0.2074755587301402
 30
0.0
 10
5.690002668130016
 20
0.1985025386360367
 30
0.0
 10
5.690002668130017
 20
0.192862827291305
 30
0.0
 10
5.690002668130017
 20
0.190038369891441
 30
0.0
  0
SPLINE
  5
122
330
1F
100
AcDbEntity
  8
0
  6
Continuous
 62
     7
370
    25
100
AcDbSpline
210
0.0
220
0.0
230
1.0
 70
    24
 71
     3
 72
    15
 73
    11
 74
     0
 42
0.000000001
 43
0.00000001
 40
0.0
 40
0.0
 40
0.0
 40
0.0
 40
0.097627960604387
 40
0.194888819806141
 40
0.2925149417680696
 40
0.3912305614123718
 40
0.491736363980988
 40
0.6598550271052508
 40
0.8282669660831921
 40
1.0
 40
1.0
 40
1.0
 40
1.0
 10
5.690002668130017
 20
-0.2179619531124981
 30
0.0
 10
5.690002668130017
 20
-0.2193816742239513
 30
0.0
 10
5.690002668130017
 20
-0.2222157780006983
 30
0.0
 10
5.690002668130016
 20
-0.2264724428790392
 30
0.0
 10
5.690002668130018
 20
-0.2307061886532998
 30
0.0
 10
5.690002668130017
 20
-0.2349185622689806
 30
0.0
 10
5.690002668130018
 20
-0.2400130880937844
 30
0.0
 10
5.690002668130018
 20
-0.2458372965117787
 30
0.0
 10
5.690002668130016
 20
-0.2521826837858493
 30
0.0
 10
5.690002668130017
 20
-0.255932094133967
 30
0.0
 10
5.690002668130017
 20
-0.257825103485249
 30
0.0
  0
SPLINE
  5
127
330
1F
100
AcDbEntity
  8
0
  6
Continuous
 62
     7
370
    25
100
AcDbSpline
210
0.0
220
0.0
230
1.0
 70
     8
 71
     3
 72
    16
 73
    12
 74
     0
 42
0.000000001
 43
0.00000001
 40
0.0
 40
0.0
 40
0.0
 40
0.0
 40
0.0803166859164005
 40
0.1618513955726842
 40
0.2446509249003909
 40
0.32875907968777
 40
0.4142163679787914
 40
0.5010597693901373
 40
0.6408011349909198
 40
0.8071313509058834
 40
1.0
 40
1.0
 40
1.0
 40
1.0
 10
5.670002668130017
 20
-0.4283391121775223
 30
0.0
 10
5.670850760427157
 20
-0.4283072857821078
 30
0.0
 10
5.672559806564961
 20
-0.4282431503355923
 30
0.0
 10
5.675099599769195
 20
-0.42772169819233
 30
0.0
 10
5.677589314234651
 20
-0.4268817687996409
 30
0.0
 10
5.679981918589153
 20
-0.4256928935755144
 30
0.0
 10
5.682228041942008
 20
-0.4241705119573028
 30
0.0
 10
5.684687409008783
 20
-0.4219640258010428
 30
0.0
 10
5.687236022028972
 20
-0.418663256152591
 30
0.0
 10
5.689506836224963
 20
-0.4138109684869168
 30
0.0
 10
5.689829445784447
 20
-0.4100061484541433
 30
0.0
 10
5.690002668130018
 20
-0.407963184037347
 30
0.0
  0
SPLINE
  5
128
330
1F
100
AcDbEntity
  8
0
  6
Continuous
 62
     7
370
    25
100
AcDbSpline
210
0.0
220
0.0
230
1.0
 70
     8
 71
     3
 72
    17
 73
    13
 74
     0
 42
0.000000001
 43
0.00000001
 40
0.0
 40
0.0
 40
0.0
 40
0.0
 40
0.0861804903450566
 40
0.1674936039446385
 40
0.2439363334613374
 40
0.3155070544813256
 40
0.3822059126564047
 40
0.4440352429627779
 40
0.5010000819449365
 40
0.672381146993761
 40
0.838602548566082
 40
1.0
 40
1.0
 40
1.0
 40
1.0
 10
5.690002668130019
 20
-0.2744544757769761
 30
0.0
 10
5.689968280829659
 20
-0.2749100370403893
 30
0.0
 10
5.68990144838482
 20
-0.2757954299816586
 30
0.0
 10
5.689386293117159
 20
-0.2770666648357071
 30
0.0
 10
5.688640901980745
 20
-0.2782225062007065
 30
0.0
 10
5.687697331890993
 20
-0.2792545615243981
 30
0.0
 10
5.686619718235889
 20
-0.2801611167975181
 30
0.0
 10
5.685457479337545
 20
-0.2809457413179025
 30
0.0
 10
5.683420546185406
 20
-0.2820875394750323
 30
0.0
 10
5.68009581537926
 20
-0.2833835646446289
 30
0.0
 10
5.675177650869502
 20
-0.2844454322715728
 30
0.0
 10
5.671710645998616
 20
-0.284575862904945
 30
0.0
 10
5.670002668130017
 20
-0.2846401179733637
 30
0.0
  0
SPLINE
  5
129
330
1F
100
AcDbEntity
  8
0
  6
Continuous
 62
     7
370
    25
100
AcDbSpline
210
0.0
220
0.0
230
1.0
 70
    24
 71
     3
 72
     8
 73
     4
 74
     0
 42
0.000000001
 43
0.00000001
 40
0.0
 40
0.0
 40
0.0
 40
0.0
 40
1.0
 40
1.0
 40
1.0
 40
1.0
 10
5.690002668130018
 20
-0.407963184037347
 30
0.0
 10
5.690002668130018
 20
-0.3900800056927181
 30
0.0
 10
5.690002668130018
 20
-0.3431556860080504
 30
0.0
 10
5.690002668130018
 20
-0.274454475776976
 30
0.0
  0
SPLINE
  5
12A
330
1F
100
AcDbEntity
  8
0
  6
Continuous
 62
     7
370
    25
100
AcDbSpline
210
0.0
220
0.0
230
1.0
 70
     8
 71
     3
 72
    16
 73
    12
 74
     0
 42
0.000000001
 43
0.00000001
 40
0.0
 40
0.0
 40
0.0
 40
0.0
 40
0.0803166858602393
 40
0.1618513954828452
 40
0.244650924799358
 40
0.3287590795979469
 40
0.4142163679224747
 40
0.5010597693894735
 40
0.6408011348601748
 40
0.8071313507755753
 40
1.0
 40
1.0
 40
1.0
 40
1.0
 10
5.670002668130017
 20
0.2846408533255015
 30
0.0
 10
5.670850760426563
 20
0.2846251157482234
 30
0.0
 10
5.672559806563414
 20
0.2845934019291497
 30
0.0
 10
5.675099599766645
 20
0.284334444822523
 30
0.0
 10
5.677589314231883
 20
0.2839153087262756
 30
0.0
 10
5.679981918586881
 20
0.2833203006617067
 30
0.0
 10
5.682228041940798
 20
0.282557859338344
 30
0.0
 10
5.684687409007395
 20
0.2814515816424804
 30
0.0
 10
5.68723602202741
 20
0.2798132560326764
 30
0.0
 10
5.689506836224407
 20
0.277387282632625
 30
0.0
 10
5.689829445784219
 20
0.275479547881102
 30
0.0
 10
5.690002668130018
 20
0.274455206603015
 30
0.0
  0
SPLINE
  5
12B
330
1F
100
AcDbEntity
  8
0
  6
Continuous
 62
     7
370
    25
100
AcDbSpline
210
0.0
220
0.0
230
1.0
 70
     8
 71
     3
 72
    17
 73
    13
 74
     0
 42
0.000000001
 43
0.00000001
 40
0.0
 40
0.0
 40
0.0
 40
0.0
 40
0.0861804903676953
 40
0.1674936039823871
 40
0.2439363335066468
 40
0.3155070545266492
 40
0.3822059126941887
 40
0.4440352429854997
 40
0.5010000819450343
 40
0.6723811470219889
 40
0.8386025485943485
 40
1.0
 40
1.0
 40
1.0
 40
1.0
 10
5.690002668130018
 20
0.4079633742731401
 30
0.0
 10
5.689968280829641
 20
0.4088734861445061
 30
0.0
 10
5.689901448384769
 20
0.4106423077967366
 30
0.0
 10
5.68938629311689
 20
0.413174941596222
 30
0.0
 10
5.688640901980261
 20
0.4154816653994194
 30
0.0
 10
5.687697331890363
 20
0.41754720290221
 30
0.0
 10
5.686619718235265
 20
0.419367318075566
 30
0.0
 10
5.685457479337132
 20
0.4209462217112533
 30
0.0
 10
5.683420546185014
 20
0.4232376354620302
 30
0.0
 10
5.680095815378742
 20
0.4258197321165741
 30
0.0
 10
5.675177650868897
 20
0.4279458151322027
 30
0.0
 10
5.671710645998314
 20
0.4282094277841648
 30
0.0
 10
5.670002668130017
 20
0.428339293357523
 30
0.0
  0
SPLINE
  5
12C
330
1F
100
AcDbEntity
  8
0
  6
Continuous
 62
     7
370
    25
100
AcDbSpline
210
0.0
220
0.0
230
1.0
 70
    24
 71
     3
 72
     8
 73
     4
 74
     0
 42
0.000000001
 43
0.00000001
 40
0.0
 40
0.0
 40
0.0
 40
0.0
 40
1.0
 40
1.0
 40
1.0
 40
1.0
 10
5.690002668130018
 20
0.274455206603015
 30
0.0
 10
5.690002668130018
 20
0.3431562758342716
 30
0.0
 10
5.690002668130018
 20
0.390080405517629
 30
0.0
 10
5.690002668130018
 20
0.4079633742731406
 30
0.0
  0
SPLINE
  5
131
330
1F
100
AcDbEntity
  8
0
  6
Continuous
 62
     8
370
    25
100
AcDbSpline
210
0.0
220
0.0
230
1.0
 70
     8
 71
     3
 72
    20
 73
    16
 74
     0
 42
0.000000001
 43
0.00000001
 40
0.0
 40
0.0
 40
0.0
 40
0.0
 40
0.0000161597417137
 40
0.0833481464301162
 40
0.1666801331184878
 40
0.2500121198068269
 40
0.3333441064951306
 40
0.4166760931833962
 40
0.5000080798716218
 40
0.5833400665598046
 40
0.6666720532479429
 40
0.7500040399360342
 40
0.8333360266240754
 40
0.9166680133120646
 40
1.0
 40
1.0
 40
1.0
 40
1.0
 10
3.408750399213603
 20
1.249998584972041
 30
0.0
 10
3.408750399215754
 20
1.249999056694298
 30
0.0
 10
3.408750410308719
 20
1.252432089126703
 30
0.0
 10
3.408750432487758
 20
1.243994650350967
 30
0.0
 10
3.408750465756901
 20
1.223572115735564
 30
0.0
 10
3.408750499025023
 20
1.187050880442818
 30
0.0
 10
3.408750532293419
 20
1.137153582692458
 30
0.0
 10
3.408750565561742
 20
1.073847741408336
 30
0.0
 10
3.408750598830082
 20
0.9980369486509267
 30
0.0
 10
3.408750632098419
 20
0.9105641279817677
 30
0.0
 10
3.408750665366758
 20
0.812455639730008
 30
0.0
 10
3.408750698635095
 20
0.7048796938405614
 30
0.0
 10
3.408750731903435
 20
0.5889971695168538
 30
0.0
 10
3.408750765171773
 20
0.4665198181464718
 30
0.0
 10
3.408750787350664
 20
0.3805324592109262
 30
0.0
 10
3.40875079844011
 20
0.3375387797431674
 30
0.0
  0
SPLINE
  5
132
330
1F
100
AcDbEntity
  8
0
  6
Continuous
 62
     8
370
    25
100
AcDbSpline
210
0.0
220
0.0
230
1.0
 70
     8
 71
     3
 72
    19
 73
    15
 74
     0
 42
0.000000001
 43
0.00000001
 40
0.0
 40
0.0
 40
0.0
 40
0.0
 40
0.0833346796469031
 40
0.1666693592938042
 40
0.2500040389407002
 40
0.3333387185875892
 40
0.4166733982344689
 40
0.5000080778813367
 40
0.5833427575281904
 40
0.6666774371750276
 40
0.7500121168218458
 40
0.8333467964686428
 40
0.9166814761154162
 40
0.9999999999999999
 40
0.9999999999999999
 40
0.9999999999999999
 40
0.9999999999999999
 10
3.408750000000001
 20
-0.3375705241635014
 30
0.0
 10
3.40875001108912
 20
-0.3805638480919684
 30
0.0
 10
3.408750033267358
 20
-0.4665504959489016
 30
0.0
 10
3.408750066534716
 20
-0.5890263042543359
 30
0.0
 10
3.408750099802071
 20
-0.7049070475082652
 30
0.0
 10
3.408750133069429
 20
-0.8124806023293817
 30
0.0
 10
3.408750166336785
 20
-0.9105874681783885
 30
0.0
 10
3.408750199604142
 20
-0.9980544438744028
 30
0.0
 10
3.408750232871499
 20
-1.073873927321939
 30
0.0
 10
3.408750266138855
 20
-1.137133143733838
 30
0.0
 10
3.408750299406212
 20
-1.187189354486495
 30
0.0
 10
3.40875033267357
 20
-1.223101698782755
 30
0.0
 10
3.408750365938774
 20
-1.245778818876105
 30
0.0
 10
3.408750388114864
 20
-1.248592087444505
 30
0.0
 10
3.408750399201834
 20
-1.249998585366195
 30
0.0
  0
LINE
  5
139
330
1F
100
AcDbEntity
  8
0
  6
Continuous
 62
     7
370
    25
100
AcDbLine
 10
3.0862157761
 20
1.1050000241
 30
0.0
 11
3.0025
 21
1.2500000013
 31
0.0
  0
LINE
  5
13A
330
1F
100
AcDbEntity
  8
0
  6
Continuous
 62
     7
370
    25
100
AcDbLine
 10
3.4231365555
 20
0.3213756927
 30
0.0
 11
3.4265319913
 21
0.3247871883
 31
0.0
  0
LINE
  5
13B
330
1F
100
AcDbEntity
  8
0
  6
Continuous
 62
     7
370
    25
100
AcDbLine
 10
3.2524999994
 20
-1.25
 30
0.0
 11
3.4093061299
 21
-1.25
 31
0.0
  0
LINE
  5
13C
330
1F
100
AcDbEntity
  8
0
  6
Continuous
 62
     7
370
    25
100
AcDbLine
 10
3.4093626863
 20
1.25
 30
0.0
 11
3.2525
 21
1.25
 31
0.0
  0
LINE
  5
13D
330
1F
100
AcDbEntity
  8
0
  6
Continuous
 62
     7
370
    25
100
AcDbLine
 10
2.745
 20
-1.25
 30
0.0
 11
3.0025
 21
-1.25
 31
0.0
  0
LINE
  5
13E
330
1F
100
AcDbEntity
  8
0
  6
Continuous
 62
     7
370
    25
100
AcDbLine
 10
2.73
 20
-1.235
 30
0.0
 11
2.745
 21
-1.25
 31
0.0
  0
LINE
  5
13F
330
1F
100
AcDbEntity
  8
0
  6
Continuous
 62
     7
370
    25
100
AcDbLine
 10
3.2525
 20
1.2500000013
 30
0.0
 11
3.168784238
 21
1.1050000486
 31
0.0
  0
LINE
  5
140
330
1F
100
AcDbEntity
  8
0
  6
Continuous
 62
     7
370
    25
100
AcDbLine
 10
3.0025
 20
-1.2500000013
 30
0.0
 11
3.086215762
 21
-1.1050000486
 31
0.0
  0
LINE
  5
141
330
1F
100
AcDbEntity
  8
0
  6
Continuous
 62
     7
370
    25
100
AcDbLine
 10
3.0025
 20
1.25
 30
0.0
 11
2.745
 21
1.25
 31
0.0
  0
LINE
  5
142
330
1F
100
AcDbEntity
  8
0
  6
Continuous
 62
     7
370
    25
100
AcDbLine
 10
2.745
 20
1.25
 30
0.0
 11
2.73
 21
1.235
 31
0.0
  0
LINE
  5
143
330
1F
100
AcDbEntity
  8
0
  6
Continuous
 62
     7
370
    25
100
AcDbLine
 10
3.168784211
 20
-1.1050000017
 30
0.0
 11
3.2524999994
 21
-1.2500000003
 31
0.0
  0
LINE
  5
144
330
1F
100
AcDbEntity
  8
0
  6
Continuous
 62
     7
370
    25
100
AcDbLine
 10
3.168784238
 20
1.105
 30
0.0
 11
3.0862157761
 21
1.105
 31
0.0
  0
LINE
  5
145
330
1F
100
AcDbEntity
  8
0
  6
Continuous
 62
     7
370
    25
100
AcDbLine
 10
3.086215762
 20
-1.105
 30
0.0
 11
3.168784211
 21
-1.105
 31
0.0
  0
LINE
  5
146
330
1F
100
AcDbEntity
  8
0
  6
Continuous
 62
     7
370
    25
100
AcDbLine
 10
3.44
 20
-0.925
 30
0.0
 11
3.49
 21
-0.875
 31
0.0
  0
LINE
  5
147
330
1F
100
AcDbEntity
  8
0
  6
Continuous
 62
     7
370
    25
100
AcDbLine
 10
3.49
 20
0.875
 30
0.0
 11
3.44
 21
0.925
 31
0.0
  0
LINE
  5
148
330
1F
100
AcDbEntity
  8
0
  6
Continuous
 62
     7
370
    25
100
AcDbLine
 10
3.49
 20
-0.875
 30
0.0
 11
4.01
 21
-0.875
 31
0.0
  0
LINE
  5
149
330
1F
100
AcDbEntity
  8
0
  6
Continuous
 62
     7
370
    25
100
AcDbLine
 10
4.01
 20
0.875
 30
0.0
 11
3.49
 21
0.875
 31
0.0
  0
LINE
  5
14A
330
1F
100
AcDbEntity
  8
0
  6
Continuous
 62
     7
370
    25
100
AcDbLine
 10
2.6900000001
 20
-0.875
 30
0.0
 11
2.69875
 21
-0.875
 31
0.0
  0
LINE
  5
14B
330
1F
100
AcDbEntity
  8
0
  6
Continuous
 62
     7
370
    25
100
AcDbLine
 10
2.69875
 20
0.875
 30
0.0
 11
2.6900000001
 21
0.875
 31
0.0
  0
LINE
  5
14C
330
1F
100
AcDbEntity
  8
0
  6
Continuous
 62
     7
370
    25
100
AcDbLine
 10
2.6900000001
 20
0.8749999995
 30
0.0
 11
0.0531950185
 21
0.4780089154
 31
0.0
  0
LINE
  5
14D
330
1F
100
AcDbEntity
  8
0
  6
Continuous
 62
     7
370
    25
100
AcDbLine
 10
0.0531950185
 20
-0.4780089154
 30
0.0
 11
2.6900000001
 21
-0.8749999995
 31
0.0
  0
LINE
  5
14E
330
1F
100
AcDbEntity
  8
0
  6
Continuous
 62
     7
370
    25
100
AcDbLine
 10
4.0399507874
 20
-0.4850492126
 30
0.0
 11
4.09
 21
-0.435
 31
0.0
  0
LINE
  5
14F
330
1F
100
AcDbEntity
  8
0
  6
Continuous
 62
     7
370
    25
100
AcDbLine
 10
4.09
 20
0.435
 30
0.0
 11
4.0399507874
 21
0.4850492126
 31
0.0
  0
LINE
  5
150
330
1F
100
AcDbEntity
  8
0
  6
Continuous
 62
     7
370
    25
100
AcDbLine
 10
5.4597538873
 20
0.436
 30
0.0
 11
5.0290026681
 21
0.436
 31
0.0
  0
LINE
  5
151
330
1F
100
AcDbEntity
  8
0
  6
Continuous
 62
     7
370
    25
100
AcDbLine
 10
5.0290026681
 20
-0.436
 30
0.0
 11
5.4597538873
 21
-0.436
 31
0.0
  0
LINE
  5
152
330
1F
100
AcDbEntity
  8
0
  6
Continuous
 62
     7
370
    25
100
AcDbLine
 10
4.7775736503
 20
0.435
 30
0.0
 11
4.09
 21
0.435
 31
0.0
  0
LINE
  5
153
330
1F
100
AcDbEntity
  8
0
  6
Continuous
 62
     7
370
    25
100
AcDbLine
 10
4.09
 20
-0.435
 30
0.0
 11
4.7775736503
 21
-0.435
 31
0.0
  0
LINE
  5
154
330
1F
100
AcDbEntity
  8
0
  6
Continuous
 62
     7
370
    25
100
AcDbLine
 10
4.7987868538
 20
-0.4262132033
 30
0.0
 11
4.8535000572
 21
-0.3715
 31
0.0
  0
LINE
  5
155
330
1F
100
AcDbEntity
  8
0
  6
Continuous
 62
     7
370
    25
100
AcDbLine
 10
4.8535000572
 20
0.3715
 30
0.0
 11
4.7987868538
 21
0.4262132033
 31
0.0
  0
LINE
  5
156
330
1F
100
AcDbEntity
  8
0
  6
Continuous
 62
     7
370
    25
100
AcDbLine
 10
4.8535000572
 20
-0.3715
 30
0.0
 11
5.0190026681
 21
-0.3715
 31
0.0
  0
LINE
  5
157
330
1F
100
AcDbEntity
  8
0
  6
Continuous
 62
     7
370
    25
100
AcDbLine
 10
5.0190026681
 20
0.3715
 30
0.0
 11
4.8535000572
 21
0.3715
 31
0.0
  0
LINE
  5
158
330
1F
100
AcDbEntity
  8
0
  6
Continuous
 62
     7
370
    25
100
AcDbLine
 10
3.0025
 20
0.3379877278
 30
0.0
 11
3.0025
 21
1.25
 31
0.0
  0
LINE
  5
159
330
1F
100
AcDbEntity
  8
0
  6
Continuous
 62
     7
370
    25
100
AcDbLine
 10
3.0862157761
 20
0.3379491438
 30
0.0
 11
3.0862157761
 21
1.1050000241
 31
0.0
  0
LINE
  5
15A
330
1F
100
AcDbEntity
  8
0
  6
Continuous
 62
     7
370
    25
100
AcDbLine
 10
3.0855945553
 20
0.3374121118
 30
0.0
 11
3.0769950719
 21
0.3225
 31
0.0
  0
LINE
  5
15B
330
1F
100
AcDbEntity
  8
0
  6
Continuous
 62
     7
370
    25
100
AcDbLine
 10
2.76
 20
0.3225
 30
0.0
 11
3.0769874249
 21
0.3225
 31
0.0
  0
LINE
  5
15C
330
1F
100
AcDbEntity
  8
0
  6
Continuous
 62
     7
370
    25
100
AcDbLine
 10
3.0855944953
 20
0.3374119591
 30
0.0
 11
3.0862157344
 21
0.3379491364
 31
0.0
  0
LINE
  5
15D
330
1F
100
AcDbEntity
  8
0
  6
Continuous
 62
     7
370
    25
100
AcDbLine
 10
3.4265802984
 20
0.3247340069
 30
0.0
 11
3.4397639217
 21
0.3380715051
 31
0.0
  0
LINE
  5
15E
330
1F
100
AcDbEntity
  8
0
  6
Continuous
 62
     7
370
    25
100
AcDbLine
 10
3.4087525504
 20
0.3225
 30
0.0
 11
3.4242446679
 21
0.3225
 31
0.0
  0
LINE
  5
15F
330
1F
100
AcDbEntity
  8
0
  6
Continuous
 62
     7
370
    25
100
AcDbLine
 10
3.40875
 20
-0.3375705242
 30
0.0
 11
3.40875
 21
-0.3225
 31
0.0
  0
LINE
  5
160
330
1F
100
AcDbEntity
  8
0
  6
Continuous
 62
     7
370
    25
100
AcDbLine
 10
3.4242417039
 20
-0.3225
 30
0.0
 11
3.4087510249
 21
-0.3225
 31
0.0
  0
LINE
  5
161
330
1F
100
AcDbEntity
  8
0
  6
Continuous
 62
     7
370
    25
100
AcDbLine
 10
2.7453730239
 20
0.3371269761
 30
0.0
 11
3.0014965672
 21
0.3371269761
 31
0.0
  0
LINE
  5
162
330
1F
100
AcDbEntity
  8
0
  6
Continuous
 62
     7
370
    25
100
AcDbLine
 10
2.76
 20
0.3225
 30
0.0
 11
2.745
 21
0.3375
 31
0.0
  0
LINE
  5
163
330
1F
100
AcDbEntity
  8
0
  6
Continuous
 62
     7
370
    25
100
AcDbLine
 10
3.2616139864
 20
0.3225
 30
0.0
 11
3.40875
 21
0.3225
 31
0.0
  0
LINE
  5
164
330
1F
100
AcDbEntity
  8
0
  6
Continuous
 62
     7
370
    25
100
AcDbLine
 10
3.2529830339
 20
0.3375705242
 30
0.0
 11
3.2616139864
 21
0.3225
 31
0.0
  0
LINE
  5
165
330
1F
100
AcDbEntity
  8
0
  6
Continuous
 62
     7
370
    25
100
AcDbLine
 10
3.4087507981
 20
0.3375465925
 30
0.0
 11
3.2529830339
 21
0.3375705242
 31
0.0
  0
LINE
  5
166
330
1F
100
AcDbEntity
  8
0
  6
Continuous
 62
     7
370
    25
100
AcDbLine
 10
3.076938775
 20
-0.3225
 30
0.0
 11
2.76
 21
-0.3225
 31
0.0
  0
LINE
  5
167
330
1F
100
AcDbEntity
  8
0
  6
Continuous
 62
     7
370
    25
100
AcDbLine
 10
3.002469902
 20
-0.3380245737
 30
0.0
 11
3.0019860037
 21
-0.3376034939
 31
0.0
  0
LINE
  5
168
330
1F
100
AcDbEntity
  8
0
  6
Continuous
 62
     7
370
    25
100
AcDbLine
 10
3.1780612251
 20
0.3225
 30
0.0
 11
3.2616139844
 21
0.3225
 31
0.0
  0
LINE
  5
169
330
1F
100
AcDbEntity
  8
0
  6
Continuous
 62
     7
370
    25
100
AcDbLine
 10
3.2529830339
 20
-0.3375705242
 30
0.0
 11
3.40875
 21
-0.3375705242
 31
0.0
  0
LINE
  5
16A
330
1F
100
AcDbEntity
  8
0
  6
Continuous
 62
     7
370
    25
100
AcDbLine
 10
3.2529895518
 20
-0.3375728999
 30
0.0
 11
3.261683717
 21
-0.3225025486
 31
0.0
  0
LINE
  5
16B
330
1F
100
AcDbEntity
  8
0
  6
Continuous
 62
     7
370
    25
100
AcDbLine
 10
3.40875
 20
-0.3225
 30
0.0
 11
3.1780125751
 21
-0.3225
 31
0.0
  0
LINE
  5
16C
330
1F
100
AcDbEntity
  8
0
  6
Continuous
 62
     7
370
    25
100
AcDbLine
 10
3.2524999994
 20
-1.2500000003
 30
0.0
 11
3.2524999994
 21
-0.3379877279
 31
0.0
  0
LINE
  5
16D
330
1F
100
AcDbEntity
  8
0
  6
Continuous
 62
     7
370
    25
100
AcDbLine
 10
3.2529830339
 20
-0.3375705242
 30
0.0
 11
3.2525
 21
-0.3379877278
 31
0.0
  0
LINE
  5
16E
330
1F
100
AcDbEntity
  8
0
  6
Continuous
 62
     7
370
    25
100
AcDbLine
 10
3.2525
 20
1.25
 30
0.0
 11
3.2525
 21
0.3379877278
 31
0.0
  0
LINE
  5
16F
330
1F
100
AcDbEntity
  8
0
  6
Continuous
 62
     7
370
    25
100
AcDbLine
 10
3.0020019678
 20
-0.3375705242
 30
0.0
 11
2.7449754667
 21
-0.3375705242
 31
0.0
  0
LINE
  5
170
330
1F
100
AcDbEntity
  8
0
  6
Continuous
 62
     7
370
    25
100
AcDbLine
 10
2.76
 20
-0.3225
 30
0.0
 11
2.7449587264
 21
-0.3375412736
 31
0.0
  0
LINE
  5
171
330
1F
100
AcDbEntity
  8
0
  6
Continuous
 62
     7
370
    25
100
AcDbLine
 10
2.745
 20
-1.25
 30
0.0
 11
2.745
 21
-0.337551162
 31
0.0
  0
LINE
  5
172
330
1F
100
AcDbEntity
  8
0
  6
Continuous
 62
     7
370
    25
100
AcDbLine
 10
3.0025
 20
-1.25
 30
0.0
 11
3.0025
 21
-0.3379877278
 31
0.0
  0
LINE
  5
173
330
1F
100
AcDbEntity
  8
0
  6
Continuous
 62
     7
370
    25
100
AcDbLine
 10
3.168784238
 20
1.1050000486
 30
0.0
 11
3.168784238
 21
0.3378906844
 31
0.0
  0
LINE
  5
174
330
1F
100
AcDbEntity
  8
0
  6
Continuous
 62
     7
370
    25
100
AcDbLine
 10
2.745
 20
0.3375
 30
0.0
 11
2.745
 21
1.25
 31
0.0
  0
LINE
  5
175
330
1F
100
AcDbEntity
  8
0
  6
Continuous
 62
     7
370
    25
100
AcDbLine
 10
3.1694054218
 20
-0.3374120307
 30
0.0
 11
3.1687842656
 21
-0.3379491364
 31
0.0
  0
LINE
  5
176
330
1F
100
AcDbEntity
  8
0
  6
Continuous
 62
     7
370
    25
100
AcDbLine
 10
3.1694053896
 20
-0.3374120278
 30
0.0
 11
3.1780131199
 21
-0.3225030811
 31
0.0
  0
LINE
  5
177
330
1F
100
AcDbEntity
  8
0
  6
Continuous
 62
     7
370
    25
100
AcDbLine
 10
2.73
 20
-1.235
 30
0.0
 11
2.73
 21
1.235
 31
0.0
  0
LINE
  5
178
330
1F
100
AcDbEntity
  8
0
  6
Continuous
 62
     7
370
    25
100
AcDbLine
 10
3.168784211
 20
-1.1050000017
 30
0.0
 11
3.1687842186
 21
-0.3379491841
 31
0.0
  0
LINE
  5
179
330
1F
100
AcDbEntity
  8
0
  6
Continuous
 62
     7
370
    25
100
AcDbLine
 10
3.44
 20
0.338125
 30
0.0
 11
3.424375
 21
0.3225
 31
0.0
  0
LINE
  5
17A
330
1F
100
AcDbEntity
  8
0
  6
Continuous
 62
     7
370
    25
100
AcDbLine
 10
3.4243720756
 20
0.3225
 30
0.0
 11
3.4244320336
 21
0.3225
 31
0.0
  0
LINE
  5
17B
330
1F
100
AcDbEntity
  8
0
  6
Continuous
 62
     7
370
    25
100
AcDbLine
 10
3.4243185817
 20
-0.3225
 30
0.0
 11
3.424372944
 21
-0.3225
 31
0.0
  0
LINE
  5
17C
330
1F
100
AcDbEntity
  8
0
  6
Continuous
 62
     7
370
    25
100
AcDbLine
 10
3.1693428129
 20
0.3374121118
 30
0.0
 11
3.0855945553
 21
0.3374121118
 31
0.0
  0
LINE
  5
17D
330
1F
100
AcDbEntity
  8
0
  6
Continuous
 62
     7
370
    25
100
AcDbLine
 10
3.0769950719
 20
0.3225
 30
0.0
 11
3.1780049281
 21
0.3225
 31
0.0
  0
LINE
  5
17E
330
1F
100
AcDbEntity
  8
0
  6
Continuous
 62
     7
370
    25
100
AcDbLine
 10
3.0856571871
 20
-0.3374121118
 30
0.0
 11
3.169405422
 21
-0.3374120315
 31
0.0
  0
LINE
  5
17F
330
1F
100
AcDbEntity
  8
0
  6
Continuous
 62
     7
370
    25
100
AcDbLine
 10
3.1780049281
 20
-0.3225
 30
0.0
 11
3.0769950719
 21
-0.3225
 31
0.0
  0
LINE
  5
180
330
1F
100
AcDbEntity
  8
0
  6
Continuous
 62
     7
370
    25
100
AcDbLine
 10
3.44
 20
0.338125
 30
0.0
 11
3.44
 21
-0.338125
 31
0.0
  0
LINE
  5
181
330
1F
100
AcDbEntity
  8
0
  6
Continuous
 62
     7
370
    25
100
AcDbLine
 10
3.49
 20
-0.875
 30
0.0
 11
3.49
 21
0.875
 31
0.0
  0
LINE
  5
182
330
1F
100
AcDbEntity
  8
0
  6
Continuous
 62
     7
370
    25
100
AcDbLine
 10
4.04
 20
-0.845
 30
0.0
 11
4.04
 21
0.845
 31
0.0
  0
LINE
  5
183
330
1F
100
AcDbEntity
  8
0
  6
Continuous
 62
     7
370
    25
100
AcDbLine
 10
2.6900000001
 20
-0.8749999995
 30
0.0
 11
2.6900000001
 21
0.8749999995
 31
0.0
  0
LINE
  5
184
330
1F
100
AcDbEntity
  8
0
  6
Continuous
 62
     7
370
    25
100
AcDbLine
 10
4.09
 20
-0.435
 30
0.0
 11
4.09
 21
0.435
 31
0.0
  0
LINE
  5
185
330
1F
100
AcDbEntity
  8
0
  6
Continuous
 62
     7
370
    25
100
AcDbLine
 10
5.6700026681
 20
-0.1436982589
 30
0.0
 11
5.6700026681
 21
0.1436991754
 31
0.0
  0
LINE
  5
186
330
1F
100
AcDbEntity
  8
0
  6
Continuous
 62
     7
370
    25
100
AcDbLine
 10
5.6700026681
 20
0.4283392934
 30
0.0
 11
5.5937113819
 21
0.4283378496
 31
0.0
  0
LINE
  5
187
330
1F
100
AcDbEntity
  8
0
  6
Continuous
 62
     7
370
    25
100
AcDbLine
 10
5.4597573107
 20
0.4354356665
 30
0.0
 11
5.4597538873
 21
0.4354277929
 31
0.0
  0
LINE
  5
188
330
1F
100
AcDbEntity
  8
0
  6
Continuous
 62
     7
370
    25
100
AcDbLine
 10
5.5937113818
 20
0.4283378494
 30
0.0
 11
5.5718348017
 21
0.4286139174
 31
0.0
  0
LINE
  5
189
330
1F
100
AcDbEntity
  8
0
  6
Continuous
 62
     7
370
    25
100
AcDbLine
 10
5.6700026681
 20
0.2846408533
 30
0.0
 11
5.6700026681
 21
0.4283392934
 31
0.0
  0
LINE
  5
18A
330
1F
100
AcDbEntity
  8
0
  6
Continuous
 62
     7
370
    25
100
AcDbLine
 10
5.5937117787
 20
0.2846467126
 30
0.0
 11
5.6700026681
 21
0.2846408533
 31
0.0
  0
LINE
  5
18B
330
1F
100
AcDbEntity
  8
0
  6
Continuous
 62
     7
370
    25
100
AcDbLine
 10
5.5937113818
 20
0.1436918711
 30
0.0
 11
5.5718348017
 21
0.1451001499
 31
0.0
  0
LINE
  5
18C
330
1F
100
AcDbEntity
  8
0
  6
Continuous
 62
     7
370
    25
100
AcDbLine
 10
5.6700026681
 20
0.1436991754
 30
0.0
 11
5.5937113819
 21
0.1436918723
 31
0.0
  0
LINE
  5
18D
330
1F
100
AcDbEntity
  8
0
  6
Continuous
 62
     7
370
    25
100
AcDbLine
 10
5.5937117787
 20
-0.1436909558
 30
0.0
 11
5.6700026681
 21
-0.1436982589
 31
0.0
  0
LINE
  5
18E
330
1F
100
AcDbEntity
  8
0
  6
Continuous
 62
     7
370
    25
100
AcDbLine
 10
5.5937113818
 20
-0.2846459783
 30
0.0
 11
5.5718348017
 21
-0.2835137675
 31
0.0
  0
LINE
  5
18F
330
1F
100
AcDbEntity
  8
0
  6
Continuous
 62
     7
370
    25
100
AcDbLine
 10
5.6700026681
 20
-0.284640118
 30
0.0
 11
5.5937113819
 21
-0.2846459773
 31
0.0
  0
LINE
  5
190
330
1F
100
AcDbEntity
  8
0
  6
Continuous
 62
     7
370
    25
100
AcDbLine
 10
5.6700026681
 20
-0.4283391122
 30
0.0
 11
5.6700026681
 21
-0.284640118
 31
0.0
  0
LINE
  5
191
330
1F
100
AcDbEntity
  8
0
  6
Continuous
 62
     7
370
    25
100
AcDbLine
 10
5.6700026681
 20
-0.4283392934
 30
0.0
 11
5.5937113819
 21
-0.4283378496
 31
0.0
  0
LINE
  5
192
330
1F
100
AcDbEntity
  8
0
  6
Continuous
 62
     7
370
    25
100
AcDbLine
 10
5.4597538873
 20
-0.4354277929
 30
0.0
 11
5.4597504163
 21
-0.4354198094
 31
0.0
  0
LINE
  5
193
330
1F
100
AcDbEntity
  8
0
  6
Continuous
 62
     7
370
    25
100
AcDbLine
 10
4.8535000572
 20
-0.3715
 30
0.0
 11
4.8535000572
 21
0.3715
 31
0.0
  0
LINE
  5
194
330
1F
100
AcDbEntity
  8
0
  6
Continuous
 62
     7
370
    25
100
AcDbLine
 10
5.48727329
 20
0.170770919
 30
0.0
 11
5.6118289399
 21
0.1436936067
 31
0.0
  0
LINE
  5
195
330
1F
100
AcDbEntity
  8
0
  6
Continuous
 62
     7
370
    25
100
AcDbLine
 10
5.6900026681
 20
-0.1458408263
 30
0.0
 11
5.4614437279
 21
-0.1955275473
 31
0.0
  0
LINE
  5
196
330
1F
100
AcDbEntity
  8
0
  6
Continuous
 62
     7
370
    25
100
AcDbLine
 10
5.6900026681
 20
-0.1335088985
 30
0.0
 11
5.6900026681
 21
-0.1458408263
 31
0.0
  0
LINE
  5
197
330
1F
100
AcDbEntity
  8
0
  6
Continuous
 62
     7
370
    25
100
AcDbLine
 10
5.6900026681
 20
0.1900383699
 30
0.0
 11
5.4614437279
 21
0.2397250909
 31
0.0
  0
LINE
  5
198
330
1F
100
AcDbEntity
  8
0
  6
Continuous
 62
     7
370
    25
100
AcDbLine
 10
5.48727329
 20
-0.2620335525
 30
0.0
 11
5.6900026681
 21
-0.2179619531
 31
0.0
  0
LINE
  5
199
330
1F
100
AcDbEntity
  8
0
  6
Continuous
 62
     7
370
    25
100
AcDbLine
 10
5.5338324222
 20
0.2781499284
 30
0.0
 11
5.6900026681
 21
0.2441998785
 31
0.0
  0
LINE
  5
19A
330
1F
100
AcDbEntity
  8
0
  6
Continuous
 62
     7
370
    25
100
AcDbLine
 10
5.6900026681
 20
-0.2578251035
 30
0.0
 11
5.5718348017
 21
-0.2835137675
 31
0.0
  0
LINE
  5
19B
330
1F
100
AcDbEntity
  8
0
  6
Continuous
 62
     7
370
    25
100
AcDbLine
 10
5.6900026681
 20
0.2516888806
 30
0.0
 11
5.5535767592
 21
0.2813466838
 31
0.0
  0
LINE
  5
19C
330
1F
100
AcDbEntity
  8
0
  6
Continuous
 62
     7
370
    25
100
AcDbLine
 10
5.6900026681
 20
0.2744552066
 30
0.0
 11
5.6900026681
 21
0.2441998785
 31
0.0
  0
LINE
  5
19D
330
1F
100
AcDbEntity
  8
0
  6
Continuous
 62
     7
370
    25
100
AcDbLine
 10
5.6900026681
 20
0.2637139127
 30
0.0
 11
5.5937117787
 21
0.2846467126
 31
0.0
  0
LINE
  5
19E
330
1F
100
AcDbEntity
  8
0
  6
Continuous
 62
     7
370
    25
100
AcDbLine
 10
5.5937113787
 20
-0.2846459737
 30
0.0
 11
5.6900026681
 21
-0.2637130868
 31
0.0
  0
LINE
  5
19F
330
1F
100
AcDbEntity
  8
0
  6
Continuous
 62
     7
370
    25
100
AcDbLine
 10
5.6900026681
 20
-0.2578251035
 30
0.0
 11
5.6900026681
 21
-0.2744544758
 31
0.0
  0
LINE
  5
1A0
330
1F
100
AcDbEntity
  8
0
  6
Continuous
 62
     8
370
    25
100
AcDbLine
 10
2.69875
 20
-0.875
 30
0.0
 11
2.69875
 21
0.875
 31
0.0
  0
LINE
  5
1A1
330
1F
100
AcDbEntity
  8
0
  6
Continuous
 62
     8
370
    25
100
AcDbLine
 10
4.01
 20
-0.875
 30
0.0
 11
4.01
 21
0.875
 31
0.0
  0
LINE
  5
1A2
330
1F
100
AcDbEntity
  8
0
  6
Continuous
 62
     8
370
    25
100
AcDbLine
 10
0.0531950185
 20
0.4780089154
 30
0.0
 11
0.0531950185
 21
-0.4780089154
 31
0.0
  0
LINE
  5
1A3
330
1F
100
AcDbEntity
  8
0
  6
Continuous
 62
     8
370
    25
100
AcDbLine
 10
5.0290026681
 20
-0.436
 30
0.0
 11
5.0290026681
 21
0.436
 31
0.0
  0
LINE
  5
1A4
330
1F
100
AcDbEntity
  8
0
  6
Continuous
 62
     8
370
    25
100
AcDbLine
 10
4.7775736503
 20
-0.435
 30
0.0
 11
4.7775736503
 21
0.435
 31
0.0
  0
LINE
  5
1A5
330
1F
100
AcDbEntity
  8
0
  6
Continuous
 62
     8
370
    25
100
AcDbLine
 10
4.7987868538
 20
-0.4262132034
 30
0.0
 11
4.7987868538
 21
0.4262132034
 31
0.0
  0
ARC
  5
1A6
330
1F
100
AcDbEntity
  8
0
  6
Continuous
 62
     7
370
    25
100
AcDbCircle
 10
3.40875
 20
1.21875
 30
0.0
 40
0.03125
100
AcDbArc
 50
0.0
 51
90.0178113063
  0
ARC
  5
1A7
330
1F
100
AcDbEntity
  8
0
  6
Continuous
 62
     7
370
    25
100
AcDbCircle
 10
3.40875
 20
-1.21875
 30
0.0
 40
0.03125
100
AcDbArc
 50
270.0192642732
 51
0.0
  0
ARC
  5
1A8
330
1F
100
AcDbEntity
  8
0
  6
Continuous
 62
     7
370
    25
100
AcDbCircle
 10
2.69875
 20
-0.90625
 30
0.0
 40
0.0312499999999991
100
AcDbArc
 50
0.0
 51
90.0
  0
ARC
  5
1A9
330
1F
100
AcDbEntity
  8
0
  6
Continuous
 62
     7
370
    25
100
AcDbCircle
 10
2.69875
 20
0.90625
 30
0.0
 40
0.0312500000000004
100
AcDbArc
 50
270.0
 51
0.0
  0
ARC
  5
1AA
330
1F
100
AcDbEntity
  8
0
  6
Continuous
 62
     7
370
    25
100
AcDbCircle
 10
4.01
 20
0.845
 30
0.0
 40
0.0300000000000002
100
AcDbArc
 50
0.0
 51
90.0
  0
ARC
  5
1AB
330
1F
100
AcDbEntity
  8
0
  6
Continuous
 62
     7
370
    25
100
AcDbCircle
 10
4.01
 20
-0.845
 30
0.0
 40
0.0300000000000004
100
AcDbArc
 50
270.0
 51
0.0
  0
ARC
  5
1AC
330
1F
100
AcDbEntity
  8
0
  6
Continuous
 62
     7
370
    25
100
AcDbCircle
 10
0.0625
 20
-0.4162054583
 30
0.0
 40
0.0624999999723582
100
AcDbArc
 50
179.9999999887
 51
261.4379906957
  0
ARC
  5
1AD
330
1F
100
AcDbEntity
  8
0
  6
Continuous
 62
     7
370
    25
100
AcDbCircle
 10
0.0625
 20
0.4162054582
 30
0.0
 40
0.0625000000162592
100
AcDbArc
 50
98.5620093389
 51
179.9999999766
  0
ARC
  5
1AE
330
1F
100
AcDbEntity
  8
0
  6
Continuous
 62
     7
370
    25
100
AcDbCircle
 10
5.0290026681
 20
-0.426
 30
0.0
 40
0.0099999999999998
100
AcDbArc
 50
180.0
 51
270.0
  0
ARC
  5
1AF
330
1F
100
AcDbEntity
  8
0
  6
Continuous
 62
     7
370
    25
100
AcDbCircle
 10
5.0290026681
 20
0.426
 30
0.0
 40
0.0100000000000007
100
AcDbArc
 50
90.0
 51
180.0
  0
ARC
  5
1B0
330
1F
100
AcDbEntity
  8
0
  6
Continuous
 62
     7
370
    25
100
AcDbCircle
 10
4.7775736503
 20
-0.405
 30
0.0
 40
0.0299999999999968
100
AcDbArc
 50
270.0
 51
315.0
  0
ARC
  5
1B1
330
1F
100
AcDbEntity
  8
0
  6
Continuous
 62
     7
370
    25
100
AcDbCircle
 10
4.7775736503
 20
0.405
 30
0.0
 40
0.0299999999999974
100
AcDbArc
 50
45.0
 51
90.0
  0
ENDSEC
  0
SECTION
  2
OBJECTS
  0
DICTIONARY
  5
C
330
0
100
AcDbDictionary
281
     1
  3
ACAD_GROUP
350
D
  3
ACAD_LAYOUT
350
1A
  3
ACAD_MLINESTYLE
350
17
  3
ACAD_PLOTSETTINGS
350
19
  3
ACAD_PLOTSTYLENAME
350
E
  3
ACAD_SCALELIST
350
47
  0
DICTIONARY
  5
D
102
{ACAD_REACTORS
330
C
102
}
330
C
100
AcDbDictionary
281
     1
  0
DICTIONARY
  5
1A
102
{ACAD_REACTORS
330
C
102
}
330
C
100
AcDbDictionary
281
     1
  3
Layout1
350
1E
  3
Layout2
350
26
  3
Model
350
22
  0
DICTIONARY
  5
17
102
{ACAD_REACTORS
330
C
102
}
330
C
100
AcDbDictionary
281
     1
  3
Standard
350
18
  0
DICTIONARY
  5
19
102
{ACAD_REACTORS
330
C
102
}
330
C
100
AcDbDictionary
281
     1
  0
ACDBDICTIONARYWDFLT
  5
E
102
{ACAD_REACTORS
330
C
102
}
330
C
100
AcDbDictionary
281
     1
  3
Normal
350
F
100
AcDbDictionaryWithDefault
340
F
  0
DICTIONARY
  5
47
102
{ACAD_REACTORS
330
C
102
}
330
C
100
AcDbDictionary
281
     1
  3
A0
350
48
  3
A1
350
49
  3
A2
350
4A
  3
A3
350
4B
  3
A4
350
4C
  3
A5
350
4D
  3
A6
350
4E
  3
A7
350
4F
  3
A8
350
50
  3
A9
350
51
  3
B0
350
52
  3
B1
350
53
  3
B2
350
54
  3
B3
350
55
  3
B4
350
56
  3
B5
350
57
  3
B6
350
58
  3
B7
350
59
  3
B8
350
5A
  3
B9
350
5B
  3
C0
350
5C
  3
C1
350
5D
  3
C2
350
5E
  3
C3
350
5F
  3
C4
350
60
  3
C5
350
61
  3
C6
350
62
  3
C7
350
63
  3
C8
350
64
  3
C9
350
65
  3
D0
350
66
  3
D1
350
67
  3
D2
350
68
  0
LAYOUT
  5
1E
102
{ACAD_REACTORS
330
1A
102
}
330
1A
100
AcDbPlotSettings
  1

  2
none_device
  4

  6

 40
0.0
 41
0.0
 42
0.0
 43
0.0
 44
0.0
 45
0.0
 46
0.0
 47
0.0
 48
0.0
 49
0.0
140
0.0
141
0.0
142
1.0
143
1.0
 70
   688
 72
     0
 73
     0
 74
     5
  7

 75
    16
147
1.0
148
0.0
149
0.0
100
AcDbLayout
  1
Layout1
 70
     1
 71
     1
 10
0.0
 20
0.0
 11
12.0
 21
9.0
 12
0.0
 22
0.0
 32
0.0
 14
1.0000000000E+20
 24
1.0000000000E+20
 34
1.0000000000E+20
 15
-1.0000000000E+20
 25
-1.0000000000E+20
 35
-1.0000000000E+20
146
0.0
 13
0.0
 23
0.0
 33
0.0
 16
1.0
 26
0.0
 36
0.0
 17
0.0
 27
1.0
 37
0.0
 76
     0
330
1B
  0
LAYOUT
  5
26
102
{ACAD_REACTORS
330
1A
102
}
330
1A
100
AcDbPlotSettings
  1

  2
none_device
  4

  6

 40
0.0
 41
0.0
 42
0.0
 43
0.0
 44
0.0
 45
0.0
 46
0.0
 47
0.0
 48
0.0
 49
0.0
140
0.0
141
0.0
142
1.0
143
1.0
 70
   688
 72
     0
 73
     0
 74
     5
  7

 75
    16
147
1.0
148
0.0
149
0.0
100
AcDbLayout
  1
Layout2
 70
     1
 71
     2
 10
0.0
 20
0.0
 11
0.0
 21
0.0
 12
0.0
 22
0.0
 32
0.0
 14
0.0
 24
0.0
 34
0.0
 15
0.0
 25
0.0
 35
0.0
146
0.0
 13
0.0
 23
0.0
 33
0.0
 16
1.0
 26
0.0
 36
0.0
 17
0.0
 27
1.0
 37
0.0
 76
     0
330
23
  0
LAYOUT
  5
22
102
{ACAD_REACTORS
330
1A
102
}
330
1A
100
AcDbPlotSettings
  1

  2
none_device
  4
ANSI_A_(11.00_x_8.50_Inches)
  6

 40
6.35
 41
19.05
 42
6.35000508
 43
19.05000254
 44
279.4
 45
215.9
 46
-4.95300254
 47
88.8948143483
 48
0.0
 49
0.0
140
0.0
141
0.0
142
1.9138831096
143
1.0
 70
  1696
 72
     0
 73
     0
 74
     0
  7

 75
     0
147
0.5913241897
148
-39.4088153714
149
0.0
100
AcDbLayout
  1
Model
 70
     1
 71
     0
 10
0.0
 20
0.0
 11
12.0
 21
9.0
 12
0.0
 22
0.0
 32
0.0
 14
0.0
 24
-1.2500000013
 34
0.0
 15
5.6900026681
 25
1.2502132949
 35
0.0
146
0.0
 13
0.0
 23
0.0
 33
0.0
 16
1.0
 26
0.0
 36
0.0
 17
0.0
 27
1.0
 37
0.0
 76
     0
330
1F
331
29
  0
MLINESTYLE
  5
18
102
{ACAD_REACTORS
330
17
102
}
330
17
100
AcDbMlineStyle
  2
Standard
 70
     0
  3

 62
   256
 51
90.0
 52
90.0
 71
     2
 49
0.5
 62
   256
  6
BYLAYER
 49
-0.5
 62
   256
  6
BYLAYER
  0
ACDBPLACEHOLDER
  5
F
102
{ACAD_REACTORS
330
E
102
}
330
E
  0
SCALE
  5
48
102
{ACAD_REACTORS
330
47
102
}
330
47
100
AcDbScale
 70
     0
300
1:1
140
1.0
141
1.0
290
     1
  0
SCALE
  5
49
102
{ACAD_REACTORS
330
47
102
}
330
47
100
AcDbScale
 70
     0
300
1:2
140
1.0
141
2.0
290
     0
  0
SCALE
  5
4A
102
{ACAD_REACTORS
330
47
102
}
330
47
100
AcDbScale
 70
     0
300
1:4
140
1.0
141
4.0
290
     0
  0
SCALE
  5
4B
102
{ACAD_REACTORS
330
47
102
}
330
47
100
AcDbScale
 70
     0
300
1:5
140
1.0
141
5.0
290
     0
  0
SCALE
  5
4C
102
{ACAD_REACTORS
330
47
102
}
330
47
100
AcDbScale
 70
     0
300
1:8
140
1.0
141
8.0
290
     0
  0
SCALE
  5
4D
102
{ACAD_REACTORS
330
47
102
}
330
47
100
AcDbScale
 70
     0
300
1:10
140
1.0
141
10.0
290
     0
  0
SCALE
  5
4E
102
{ACAD_REACTORS
330
47
102
}
330
47
100
AcDbScale
 70
     0
300
1:16
140
1.0
141
16.0
290
     0
  0
SCALE
  5
4F
102
{ACAD_REACTORS
330
47
102
}
330
47
100
AcDbScale
 70
     0
300
1:20
140
1.0
141
20.0
290
     0
  0
SCALE
  5
50
102
{ACAD_REACTORS
330
47
102
}
330
47
100
AcDbScale
 70
     0
300
1:30
140
1.0
141
30.0
290
     0
  0
SCALE
  5
51
102
{ACAD_REACTORS
330
47
102
}
330
47
100
AcDbScale
 70
     0
300
1:40
140
1.0
141
40.0
290
     0
  0
SCALE
  5
52
102
{ACAD_REACTORS
330
47
102
}
330
47
100
AcDbScale
 70
     0
300
1:50
140
1.0
141
50.0
290
     0
  0
SCALE
  5
53
102
{ACAD_REACTORS
330
47
102
}
330
47
100
AcDbScale
 70
     0
300
1:100
140
1.0
141
100.0
290
     0
  0
SCALE
  5
54
102
{ACAD_REACTORS
330
47
102
}
330
47
100
AcDbScale
 70
     0
300
2:1
140
2.0
141
1.0
290
     0
  0
SCALE
  5
55
102
{ACAD_REACTORS
330
47
102
}
330
47
100
AcDbScale
 70
     0
300
4:1
140
4.0
141
1.0
290
     0
  0
SCALE
  5
56
102
{ACAD_REACTORS
330
47
102
}
330
47
100
AcDbScale
 70
     0
300
8:1
140
8.0
141
1.0
290
     0
  0
SCALE
  5
57
102
{ACAD_REACTORS
330
47
102
}
330
47
100
AcDbScale
 70
     0
300
10:1
140
10.0
141
1.0
290
     0
  0
SCALE
  5
58
102
{ACAD_REACTORS
330
47
102
}
330
47
100
AcDbScale
 70
     0
300
100:1
140
100.0
141
1.0
290
     0
  0
SCALE
  5
59
102
{ACAD_REACTORS
330
47
102
}
330
47
100
AcDbScale
 70
     0
300
1/128" = 1'-0"
140
0.0078125
141
12.0
290
     0
  0
SCALE
  5
5A
102
{ACAD_REACTORS
330
47
102
}
330
47
100
AcDbScale
 70
     0
300
1/64" = 1'-0"
140
0.015625
141
12.0
290
     0
  0
SCALE
  5
5B
102
{ACAD_REACTORS
330
47
102
}
330
47
100
AcDbScale
 70
     0
300
1/32" = 1'-0"
140
0.03125
141
12.0
290
     0
  0
SCALE
  5
5C
102
{ACAD_REACTORS
330
47
102
}
330
47
100
AcDbScale
 70
     0
300
1/16" = 1'-0"
140
0.0625
141
12.0
290
     0
  0
SCALE
  5
5D
102
{ACAD_REACTORS
330
47
102
}
330
47
100
AcDbScale
 70
     0
300
3/32" = 1'-0"
140
0.09375
141
12.0
290
     0
  0
SCALE
  5
5E
102
{ACAD_REACTORS
330
47
102
}
330
47
100
AcDbScale
 70
     0
300
1/8" = 1'-0"
140
0.125
141
12.0
290
     0
  0
SCALE
  5
5F
102
{ACAD_REACTORS
330
47
102
}
330
47
100
AcDbScale
 70
     0
300
3/16" = 1'-0"
140
0.1875
141
12.0
290
     0
  0
SCALE
  5
60
102
{ACAD_REACTORS
330
47
102
}
330
47
100
AcDbScale
 70
     0
300
1/4" = 1'-0"
140
0.25
141
12.0
290
     0
  0
SCALE
  5
61
102
{ACAD_REACTORS
330
47
102
}
330
47
100
AcDbScale
 70
     0
300
3/8" = 1'-0"
140
0.375
141
12.0
290
     0
  0
SCALE
  5
62
102
{ACAD_REACTORS
330
47
102
}
330
47
100
AcDbScale
 70
     0
300
1/2" = 1'-0"
140
0.5
141
12.0
290
     0
  0
SCALE
  5
63
102
{ACAD_REACTORS
330
47
102
}
330
47
100
AcDbScale
 70
     0
300
3/4" = 1'-0"
140
0.75
141
12.0
290
     0
  0
SCALE
  5
64
102
{ACAD_REACTORS
330
47
102
}
330
47
100
AcDbScale
 70
     0
300
1" = 1'-0"
140
1.0
141
12.0
290
     0
  0
SCALE
  5
65
102
{ACAD_REACTORS
330
47
102
}
330
47
100
AcDbScale
 70
     0
300
1-1/2" = 1'-0"
140
1.5
141
12.0
290
     0
  0
SCALE
  5
66
102
{ACAD_REACTORS
330
47
102
}
330
47
100
AcDbScale
 70
     0
300
3" = 1'-0"
140
3.0
141
12.0
290
     0
  0
SCALE
  5
67
102
{ACAD_REACTORS
330
47
102
}
330
47
100
AcDbScale
 70
     0
300
6" = 1'-0"
140
6.0
141
12.0
290
     0
  0
SCALE
  5
68
102
{ACAD_REACTORS
330
47
102
}
330
47
100
AcDbScale
 70
     0
300
1'-0" = 1'-0"
140
12.0
141
12.0
290
     0
  0
ENDSEC
  0
EOF
